  0
SECTION
  2
HEADER
  9
$ANGBASE
  50
0.0
  9
$ANGDIR
  70
  1
  9
$MEASUREMENT
  70
0
  0
ENDSEC
  0
SECTION
  2
TABLES
  0
TABLE
  2
LTYPE
  70
4
  0
LTYPE
  5
40F
  2
CONTINUOUS
  70
0
  3
Solid line
  72
65
  73
0
  40
0.0
  0
LTYPE
  5
410
  2
DASHDOT
 70
0
  3
Dash Dot ____ _ ____ _
 72
65
 73
4
 40
2.0
 49
1.25
 49
-0.25
 49
0.25
 49
-0.25
  0
LTYPE
  5
411
  2
DASHED
 70
0
  3
Dashed __ __ __ __ __
 72
65
 73
2
 40
0.75
 49
0.5
 49
-0.25
  0
LTYPE
  5
43B
  2
DOTTED
 70
0
  3
Dotted .  .  .  .
 72
65
 73
2
 40
0.2
 49
0.0
 49
-0.2
  0
ENDTAB
  0
TABLE
  2
STYLE
  70
4
  0
STYLE
  2
KICAD
  70
0
  40
0
  41
1
  42
1
  50
0
  71
0
  3
isocp.shx
  0
STYLE
  2
KICADB
  70
0
  40
0
  41
1
  42
1
  50
0
  71
0
  3
isocp.shx
  0
STYLE
  2
KICADI
  70
0
  40
0
  41
1
  42
1
  50
15
  71
0
  3
isocp.shx
  0
STYLE
  2
KICADBI
  70
0
  40
0
  41
1
  42
1
  50
15
  71
0
  3
isocp.shx
  0
ENDTAB
  0
TABLE
  2
LAYER
  70
30
  0
LAYER
  2
BLACK
  70
0
  62
7
  6
CONTINUOUS
  0
LAYER
  2
GRAY1
  70
0
  62
251
  6
CONTINUOUS
  0
LAYER
  2
GRAY2
  70
0
  62
8
  6
CONTINUOUS
  0
LAYER
  2
GRAY3
  70
0
  62
9
  6
CONTINUOUS
  0
LAYER
  2
WHITE
  70
0
  62
7
  6
CONTINUOUS
  0
LAYER
  2
LYELLOW
  70
0
  62
51
  6
CONTINUOUS
  0
LAYER
  2
BLUE1
  70
0
  62
178
  6
CONTINUOUS
  0
LAYER
  2
GREEN1
  70
0
  62
98
  6
CONTINUOUS
  0
LAYER
  2
CYAN1
  70
0
  62
138
  6
CONTINUOUS
  0
LAYER
  2
RED1
  70
0
  62
18
  6
CONTINUOUS
  0
LAYER
  2
MAGENTA1
  70
0
  62
228
  6
CONTINUOUS
  0
LAYER
  2
BROWN1
  70
0
  62
58
  6
CONTINUOUS
  0
LAYER
  2
BLUE2
  70
0
  62
5
  6
CONTINUOUS
  0
LAYER
  2
GREEN2
  70
0
  62
3
  6
CONTINUOUS
  0
LAYER
  2
CYAN2
  70
0
  62
4
  6
CONTINUOUS
  0
LAYER
  2
RED2
  70
0
  62
1
  6
CONTINUOUS
  0
LAYER
  2
MAGENTA2
  70
0
  62
6
  6
CONTINUOUS
  0
LAYER
  2
BROWN2
  70
0
  62
54
  6
CONTINUOUS
  0
LAYER
  2
BLUE3
  70
0
  62
171
  6
CONTINUOUS
  0
LAYER
  2
GREEN3
  70
0
  62
91
  6
CONTINUOUS
  0
LAYER
  2
CYAN3
  70
0
  62
131
  6
CONTINUOUS
  0
LAYER
  2
RED3
  70
0
  62
11
  6
CONTINUOUS
  0
LAYER
  2
MAGENTA3
  70
0
  62
221
  6
CONTINUOUS
  0
LAYER
  2
YELLOW3
  70
0
  62
2
  6
CONTINUOUS
  0
LAYER
  2
BLUE4
  70
0
  62
5
  6
CONTINUOUS
  0
LAYER
  2
GREEN4
  70
0
  62
3
  6
CONTINUOUS
  0
LAYER
  2
CYAN4
  70
0
  62
4
  6
CONTINUOUS
  0
LAYER
  2
RED4
  70
0
  62
1
  6
CONTINUOUS
  0
LAYER
  2
MAGENTA4
  70
0
  62
6
  6
CONTINUOUS
  0
LAYER
  2
YELLOW4
  70
0
  62
2
  6
CONTINUOUS
  0
ENDTAB
  0
ENDSEC
  0
SECTION
  2
ENTITIES
0
LINE
8
BLACK
6
CONTINUOUS
10
101.429
20
-37.1824
11
100.857
21
-37.1824
0
LINE
8
BLACK
6
CONTINUOUS
10
101.143
20
-37.1824
11
101.143
21
-36.1824
0
LINE
8
BLACK
6
CONTINUOUS
10
101.143
20
-36.1824
11
101.048
21
-36.3252
0
LINE
8
BLACK
6
CONTINUOUS
10
101.048
20
-36.3252
11
100.952
21
-36.4205
0
LINE
8
BLACK
6
CONTINUOUS
10
100.952
20
-36.4205
11
100.857
21
-36.4681
0
LINE
8
BLACK
6
CONTINUOUS
10
102.048
20
-36.1824
11
102.143
21
-36.1824
0
LINE
8
BLACK
6
CONTINUOUS
10
102.143
20
-36.1824
11
102.238
21
-36.23
0
LINE
8
BLACK
6
CONTINUOUS
10
102.238
20
-36.23
11
102.286
21
-36.2776
0
LINE
8
BLACK
6
CONTINUOUS
10
102.286
20
-36.2776
11
102.333
21
-36.3729
0
LINE
8
BLACK
6
CONTINUOUS
10
102.333
20
-36.3729
11
102.381
21
-36.5633
0
LINE
8
BLACK
6
CONTINUOUS
10
102.381
20
-36.5633
11
102.381
21
-36.8014
0
LINE
8
BLACK
6
CONTINUOUS
10
102.381
20
-36.8014
11
102.333
21
-36.9919
0
LINE
8
BLACK
6
CONTINUOUS
10
102.333
20
-36.9919
11
102.286
21
-37.0871
0
LINE
8
BLACK
6
CONTINUOUS
10
102.286
20
-37.0871
11
102.238
21
-37.1348
0
LINE
8
BLACK
6
CONTINUOUS
10
102.238
20
-37.1348
11
102.143
21
-37.1824
0
LINE
8
BLACK
6
CONTINUOUS
10
102.143
20
-37.1824
11
102.048
21
-37.1824
0
LINE
8
BLACK
6
CONTINUOUS
10
102.048
20
-37.1824
11
101.952
21
-37.1348
0
LINE
8
BLACK
6
CONTINUOUS
10
101.952
20
-37.1348
11
101.905
21
-37.0871
0
LINE
8
BLACK
6
CONTINUOUS
10
101.905
20
-37.0871
11
101.857
21
-36.9919
0
LINE
8
BLACK
6
CONTINUOUS
10
101.857
20
-36.9919
11
101.81
21
-36.8014
0
LINE
8
BLACK
6
CONTINUOUS
10
101.81
20
-36.8014
11
101.81
21
-36.5633
0
LINE
8
BLACK
6
CONTINUOUS
10
101.81
20
-36.5633
11
101.857
21
-36.3729
0
LINE
8
BLACK
6
CONTINUOUS
10
101.857
20
-36.3729
11
101.905
21
-36.2776
0
LINE
8
BLACK
6
CONTINUOUS
10
101.905
20
-36.2776
11
101.952
21
-36.23
0
LINE
8
BLACK
6
CONTINUOUS
10
101.952
20
-36.23
11
102.048
21
-36.1824
0
LINE
8
BLACK
6
CONTINUOUS
10
102.81
20
-37.0871
11
102.857
21
-37.1348
0
LINE
8
BLACK
6
CONTINUOUS
10
102.857
20
-37.1348
11
102.81
21
-37.1824
0
LINE
8
BLACK
6
CONTINUOUS
10
102.81
20
-37.1824
11
102.762
21
-37.1348
0
LINE
8
BLACK
6
CONTINUOUS
10
102.762
20
-37.1348
11
102.81
21
-37.0871
0
LINE
8
BLACK
6
CONTINUOUS
10
102.81
20
-37.0871
11
102.81
21
-37.1824
0
LINE
8
BLACK
6
CONTINUOUS
10
103.476
20
-36.1824
11
103.571
21
-36.1824
0
LINE
8
BLACK
6
CONTINUOUS
10
103.571
20
-36.1824
11
103.667
21
-36.23
0
LINE
8
BLACK
6
CONTINUOUS
10
103.667
20
-36.23
11
103.714
21
-36.2776
0
LINE
8
BLACK
6
CONTINUOUS
10
103.714
20
-36.2776
11
103.762
21
-36.3729
0
LINE
8
BLACK
6
CONTINUOUS
10
103.762
20
-36.3729
11
103.81
21
-36.5633
0
LINE
8
BLACK
6
CONTINUOUS
10
103.81
20
-36.5633
11
103.81
21
-36.8014
0
LINE
8
BLACK
6
CONTINUOUS
10
103.81
20
-36.8014
11
103.762
21
-36.9919
0
LINE
8
BLACK
6
CONTINUOUS
10
103.762
20
-36.9919
11
103.714
21
-37.0871
0
LINE
8
BLACK
6
CONTINUOUS
10
103.714
20
-37.0871
11
103.667
21
-37.1348
0
LINE
8
BLACK
6
CONTINUOUS
10
103.667
20
-37.1348
11
103.571
21
-37.1824
0
LINE
8
BLACK
6
CONTINUOUS
10
103.571
20
-37.1824
11
103.476
21
-37.1824
0
LINE
8
BLACK
6
CONTINUOUS
10
103.476
20
-37.1824
11
103.381
21
-37.1348
0
LINE
8
BLACK
6
CONTINUOUS
10
103.381
20
-37.1348
11
103.333
21
-37.0871
0
LINE
8
BLACK
6
CONTINUOUS
10
103.333
20
-37.0871
11
103.286
21
-36.9919
0
LINE
8
BLACK
6
CONTINUOUS
10
103.286
20
-36.9919
11
103.238
21
-36.8014
0
LINE
8
BLACK
6
CONTINUOUS
10
103.238
20
-36.8014
11
103.238
21
-36.5633
0
LINE
8
BLACK
6
CONTINUOUS
10
103.238
20
-36.5633
11
103.286
21
-36.3729
0
LINE
8
BLACK
6
CONTINUOUS
10
103.286
20
-36.3729
11
103.333
21
-36.2776
0
LINE
8
BLACK
6
CONTINUOUS
10
103.333
20
-36.2776
11
103.381
21
-36.23
0
LINE
8
BLACK
6
CONTINUOUS
10
103.381
20
-36.23
11
103.476
21
-36.1824
0
LINE
8
BLACK
6
CONTINUOUS
10
104.429
20
-36.1824
11
104.524
21
-36.1824
0
LINE
8
BLACK
6
CONTINUOUS
10
104.524
20
-36.1824
11
104.619
21
-36.23
0
LINE
8
BLACK
6
CONTINUOUS
10
104.619
20
-36.23
11
104.667
21
-36.2776
0
LINE
8
BLACK
6
CONTINUOUS
10
104.667
20
-36.2776
11
104.714
21
-36.3729
0
LINE
8
BLACK
6
CONTINUOUS
10
104.714
20
-36.3729
11
104.762
21
-36.5633
0
LINE
8
BLACK
6
CONTINUOUS
10
104.762
20
-36.5633
11
104.762
21
-36.8014
0
LINE
8
BLACK
6
CONTINUOUS
10
104.762
20
-36.8014
11
104.714
21
-36.9919
0
LINE
8
BLACK
6
CONTINUOUS
10
104.714
20
-36.9919
11
104.667
21
-37.0871
0
LINE
8
BLACK
6
CONTINUOUS
10
104.667
20
-37.0871
11
104.619
21
-37.1348
0
LINE
8
BLACK
6
CONTINUOUS
10
104.619
20
-37.1348
11
104.524
21
-37.1824
0
LINE
8
BLACK
6
CONTINUOUS
10
104.524
20
-37.1824
11
104.429
21
-37.1824
0
LINE
8
BLACK
6
CONTINUOUS
10
104.429
20
-37.1824
11
104.333
21
-37.1348
0
LINE
8
BLACK
6
CONTINUOUS
10
104.333
20
-37.1348
11
104.286
21
-37.0871
0
LINE
8
BLACK
6
CONTINUOUS
10
104.286
20
-37.0871
11
104.238
21
-36.9919
0
LINE
8
BLACK
6
CONTINUOUS
10
104.238
20
-36.9919
11
104.19
21
-36.8014
0
LINE
8
BLACK
6
CONTINUOUS
10
104.19
20
-36.8014
11
104.19
21
-36.5633
0
LINE
8
BLACK
6
CONTINUOUS
10
104.19
20
-36.5633
11
104.238
21
-36.3729
0
LINE
8
BLACK
6
CONTINUOUS
10
104.238
20
-36.3729
11
104.286
21
-36.2776
0
LINE
8
BLACK
6
CONTINUOUS
10
104.286
20
-36.2776
11
104.333
21
-36.23
0
LINE
8
BLACK
6
CONTINUOUS
10
104.333
20
-36.23
11
104.429
21
-36.1824
0
LINE
8
BLACK
6
CONTINUOUS
10
105.381
20
-36.1824
11
105.476
21
-36.1824
0
LINE
8
BLACK
6
CONTINUOUS
10
105.476
20
-36.1824
11
105.571
21
-36.23
0
LINE
8
BLACK
6
CONTINUOUS
10
105.571
20
-36.23
11
105.619
21
-36.2776
0
LINE
8
BLACK
6
CONTINUOUS
10
105.619
20
-36.2776
11
105.667
21
-36.3729
0
LINE
8
BLACK
6
CONTINUOUS
10
105.667
20
-36.3729
11
105.714
21
-36.5633
0
LINE
8
BLACK
6
CONTINUOUS
10
105.714
20
-36.5633
11
105.714
21
-36.8014
0
LINE
8
BLACK
6
CONTINUOUS
10
105.714
20
-36.8014
11
105.667
21
-36.9919
0
LINE
8
BLACK
6
CONTINUOUS
10
105.667
20
-36.9919
11
105.619
21
-37.0871
0
LINE
8
BLACK
6
CONTINUOUS
10
105.619
20
-37.0871
11
105.571
21
-37.1348
0
LINE
8
BLACK
6
CONTINUOUS
10
105.571
20
-37.1348
11
105.476
21
-37.1824
0
LINE
8
BLACK
6
CONTINUOUS
10
105.476
20
-37.1824
11
105.381
21
-37.1824
0
LINE
8
BLACK
6
CONTINUOUS
10
105.381
20
-37.1824
11
105.286
21
-37.1348
0
LINE
8
BLACK
6
CONTINUOUS
10
105.286
20
-37.1348
11
105.238
21
-37.0871
0
LINE
8
BLACK
6
CONTINUOUS
10
105.238
20
-37.0871
11
105.19
21
-36.9919
0
LINE
8
BLACK
6
CONTINUOUS
10
105.19
20
-36.9919
11
105.143
21
-36.8014
0
LINE
8
BLACK
6
CONTINUOUS
10
105.143
20
-36.8014
11
105.143
21
-36.5633
0
LINE
8
BLACK
6
CONTINUOUS
10
105.143
20
-36.5633
11
105.19
21
-36.3729
0
LINE
8
BLACK
6
CONTINUOUS
10
105.19
20
-36.3729
11
105.238
21
-36.2776
0
LINE
8
BLACK
6
CONTINUOUS
10
105.238
20
-36.2776
11
105.286
21
-36.23
0
LINE
8
BLACK
6
CONTINUOUS
10
105.286
20
-36.23
11
105.381
21
-36.1824
0
LINE
8
BLACK
6
CONTINUOUS
10
106.905
20
-37.1824
11
106.905
21
-36.5157
0
LINE
8
BLACK
6
CONTINUOUS
10
106.905
20
-36.611
11
106.952
21
-36.5633
0
LINE
8
BLACK
6
CONTINUOUS
10
106.952
20
-36.5633
11
107.048
21
-36.5157
0
LINE
8
BLACK
6
CONTINUOUS
10
107.048
20
-36.5157
11
107.19
21
-36.5157
0
LINE
8
BLACK
6
CONTINUOUS
10
107.19
20
-36.5157
11
107.286
21
-36.5633
0
LINE
8
BLACK
6
CONTINUOUS
10
107.286
20
-36.5633
11
107.333
21
-36.6586
0
LINE
8
BLACK
6
CONTINUOUS
10
107.333
20
-36.6586
11
107.333
21
-37.1824
0
LINE
8
BLACK
6
CONTINUOUS
10
107.333
20
-36.6586
11
107.381
21
-36.5633
0
LINE
8
BLACK
6
CONTINUOUS
10
107.381
20
-36.5633
11
107.476
21
-36.5157
0
LINE
8
BLACK
6
CONTINUOUS
10
107.476
20
-36.5157
11
107.619
21
-36.5157
0
LINE
8
BLACK
6
CONTINUOUS
10
107.619
20
-36.5157
11
107.714
21
-36.5633
0
LINE
8
BLACK
6
CONTINUOUS
10
107.714
20
-36.5633
11
107.762
21
-36.6586
0
LINE
8
BLACK
6
CONTINUOUS
10
107.762
20
-36.6586
11
107.762
21
-37.1824
0
LINE
8
BLACK
6
CONTINUOUS
10
108.238
20
-37.1824
11
108.238
21
-36.5157
0
LINE
8
BLACK
6
CONTINUOUS
10
108.238
20
-36.611
11
108.286
21
-36.5633
0
LINE
8
BLACK
6
CONTINUOUS
10
108.286
20
-36.5633
11
108.381
21
-36.5157
0
LINE
8
BLACK
6
CONTINUOUS
10
108.381
20
-36.5157
11
108.524
21
-36.5157
0
LINE
8
BLACK
6
CONTINUOUS
10
108.524
20
-36.5157
11
108.619
21
-36.5633
0
LINE
8
BLACK
6
CONTINUOUS
10
108.619
20
-36.5633
11
108.667
21
-36.6586
0
LINE
8
BLACK
6
CONTINUOUS
10
108.667
20
-36.6586
11
108.667
21
-37.1824
0
LINE
8
BLACK
6
CONTINUOUS
10
108.667
20
-36.6586
11
108.714
21
-36.5633
0
LINE
8
BLACK
6
CONTINUOUS
10
108.714
20
-36.5633
11
108.81
21
-36.5157
0
LINE
8
BLACK
6
CONTINUOUS
10
108.81
20
-36.5157
11
108.952
21
-36.5157
0
LINE
8
BLACK
6
CONTINUOUS
10
108.952
20
-36.5157
11
109.048
21
-36.5633
0
LINE
8
BLACK
6
CONTINUOUS
10
109.048
20
-36.5633
11
109.095
21
-36.6586
0
LINE
8
BLACK
6
CONTINUOUS
10
109.095
20
-36.6586
11
109.095
21
-37.1824
0
LINE
8
BLACK
6
CONTINUOUS
10
100
20
-38
11
110
21
-38
0
LINE
8
BLACK
6
CONTINUOUS
10
100
20
-40
11
100
21
-37.4136
0
LINE
8
BLACK
6
CONTINUOUS
10
110
20
-40
11
110
21
-37.4136
0
LINE
8
BLACK
6
CONTINUOUS
10
110
20
-38
11
108.873
21
-38.5864
0
LINE
8
BLACK
6
CONTINUOUS
10
110
20
-38
11
108.873
21
-37.4136
0
LINE
8
BLACK
6
CONTINUOUS
10
100
20
-38
11
101.127
21
-38.5864
0
LINE
8
BLACK
6
CONTINUOUS
10
100
20
-38
11
101.127
21
-37.4136
0
LINE
8
BLACK
6
CONTINUOUS
10
100
20
-50
11
100
21
-40
0
LINE
8
BLACK
6
CONTINUOUS
10
110
20
-50
11
100
21
-50
0
LINE
8
BLACK
6
CONTINUOUS
10
110
20
-40
11
110
21
-50
0
LINE
8
BLACK
6
CONTINUOUS
10
100
20
-40
11
110
21
-40
  0
ENDSEC
  0
EOF
