999
DXF created by Inkscape
  0
SECTION
  2
HEADER
  9
$ACADVER
  1
AC1014
  9
$HANDSEED
  5
FFFF
  9
$MEASUREMENT
 70
     1
  0
ENDSEC
  0
SECTION
  2
TABLES
  0
TABLE
  2
VPORT
  5
8
330
0
100
AcDbSymbolTable
 70
     4
  0
VPORT
  5
2E
330
8
100
AcDbSymbolTableRecord
100
AcDbViewportTableRecord
  2
*ACTIVE
 70
     0
 10
0.0
 20
0.0
 11
1.0
 21
1.0
 12
210.0
 22
148.5
 13
0.0
 23
0.0
 14
10.0
 24
10.0
 15
10.0
 25
10.0
 16
0.0
 26
0.0
 36
1.0
 17
0.0
 27
0.0
 37
0.0
 40
341.0
 41
1.24
 42
50.0
 43
0.0
 44
0.0
 50
0.0
 51
0.0
 71
     0
 72
   100
 73
     1
 74
     3
 75
     0
 76
     0
 77
     0
 78
     0
  0
ENDTAB
  0
TABLE
  2
LTYPE
  5
5
330
0
100
AcDbSymbolTable
 70
     1
  0
LTYPE
  5
14
330
5
100
AcDbSymbolTableRecord
100
AcDbLinetypeTableRecord
  2
BYBLOCK
 70
     0
  3

 72
    65
 73
     0
 40
0.0
  0
LTYPE
  5
15
330
5
100
AcDbSymbolTableRecord
100
AcDbLinetypeTableRecord
  2
BYLAYER
 70
     0
  3

 72
    65
 73
     0
 40
0.0
  0
LTYPE
  5
16
330
5
100
AcDbSymbolTableRecord
100
AcDbLinetypeTableRecord
  2
CONTINUOUS
 70
     0
  3
Solid line
 72
    65
 73
     0
 40
0.0
  0
ENDTAB
  0
TABLE
  2
LAYER
  5
2
100
AcDbSymbolTable
 70
4
  0
LAYER
  5
50
100
AcDbSymbolTableRecord
100
AcDbLayerTableRecord
  2
0
 70
0
  6
CONTINUOUS
  0
LAYER
  5
51
100
AcDbSymbolTableRecord
100
AcDbLayerTableRecord
  2
Layer_1
 70
0
  6
CONTINUOUS
  0
LAYER
  5
52
100
AcDbSymbolTableRecord
100
AcDbLayerTableRecord
  2
Layer_2
 70
0
  6
CONTINUOUS
  0
LAYER
  5
53
100
AcDbSymbolTableRecord
100
AcDbLayerTableRecord
  2
Layer_3
 70
0
  6
CONTINUOUS
  0
ENDTAB
  0
TABLE
  2
STYLE
  5
3
330
0
100
AcDbSymbolTable
 70
     1
  0
STYLE
  5
11
330
3
100
AcDbSymbolTableRecord
100
AcDbTextStyleTableRecord
  2
STANDARD
 70
     0
 40
0.0
 41
1.0
 50
0.0
 71
     0
 42
2.5
  3
txt
  4

  0
ENDTAB
  0
TABLE
  2
VIEW
  5
6
330
0
100
AcDbSymbolTable
 70
     0
  0
ENDTAB
  0
TABLE
  2
UCS
  5
7
330
0
100
AcDbSymbolTable
 70
     0
  0
ENDTAB
  0
TABLE
  2
APPID
  5
9
330
0
100
AcDbSymbolTable
 70
     2
  0
APPID
  5
12
330
9
100
AcDbSymbolTableRecord
100
AcDbRegAppTableRecord
  2
ACAD
 70
     0
  0
ENDTAB
  0
TABLE
  2
DIMSTYLE
  5
A
330
0
100
AcDbSymbolTable
 70
     1
  0
DIMSTYLE
105
27
330
A
100
AcDbSymbolTableRecord
100
AcDbDimStyleTableRecord
  2
ISO-25
 70
     0
  3

  4

  5

  6

  7

 40
1.0
 41
2.5
 42
0.625
 43
3.75
 44
1.25
 45
0.0
 46
0.0
 47
0.0
 48
0.0
140
2.5
141
2.5
142
0.0
143
0.03937007874016
144
1.0
145
0.0
146
1.0
147
0.625
 71
     0
 72
     0
 73
     0
 74
     0
 75
     0
 76
     0
 77
     1
 78
     8
170
     0
171
     3
172
     1
173
     0
174
     0
175
     0
176
     0
177
     0
178
     0
270
     2
271
     2
272
     2
273
     2
274
     3
340
11
275
     0
280
     0
281
     0
282
     0
283
     0
284
     8
285
     0
286
     0
287
     3
288
     0
  0
ENDTAB
  0
TABLE
  2
BLOCK_RECORD
  5
1
330
0
100
AcDbSymbolTable
 70
     1
  0
BLOCK_RECORD
  5
1F
330
1
100
AcDbSymbolTableRecord
100
AcDbBlockTableRecord
  2
*MODEL_SPACE
  0
BLOCK_RECORD
  5
1B
330
1
100
AcDbSymbolTableRecord
100
AcDbBlockTableRecord
  2
*PAPER_SPACE
  0
ENDTAB
  0
ENDSEC
  0
SECTION
  2
BLOCKS
  0
BLOCK
  5
20
330
1F
100
AcDbEntity
  8
0
100
AcDbBlockBegin
  2
*MODEL_SPACE
 70
     0
 10
0.0
 20
0.0
 30
0.0
  3
*MODEL_SPACE
  1

  0
ENDBLK
  5
21
330
1F
100
AcDbEntity
  8
0
100
AcDbBlockEnd
  0
BLOCK
  5
1C
330
1B
100
AcDbEntity
 67
     1
  8
0
100
AcDbBlockBegin
  2
*PAPER_SPACE
  1

  0
ENDBLK
  5
1D
330
1B
100
AcDbEntity
 67
     1
  8
0
100
AcDbBlockEnd
  0
ENDSEC
  0
SECTION
  2
ENTITIES
  0
LWPOLYLINE
  5
100
100
AcDbEntity
  8
Layer_1
 62
7
100
AcDbPolyline
 90
14
 70
0
 10
61.806667
 20
42.192222
 30
0.0
 10
61.806667
 20
40.781111
 30
0.0
 10
61.806667
 20
4.374444
 30
0.0
 10
61.806667
 20
2.963333
 30
0.0
 10
63.217778
 20
2.963333
 30
0.0
 10
104.422222
 20
2.963333
 30
0.0
 10
105.833333
 20
2.963333
 30
0.0
 10
105.833333
 20
4.374444
 30
0.0
 10
105.833333
 20
40.781111
 30
0.0
 10
105.833333
 20
42.192222
 30
0.0
 10
104.422222
 20
42.192222
 30
0.0
 10
63.217778
 20
42.192222
 30
0.0
 10
61.806667
 20
42.192222
 30
0.0
 10
61.806667
 20
42.192222
 30
0.0
  0
LWPOLYLINE
  5
101
100
AcDbEntity
  8
Layer_1
 62
7
100
AcDbPolyline
 90
6
 70
0
 10
64.628889
 20
39.370000
 30
0.0
 10
103.011111
 20
39.370000
 30
0.0
 10
103.011111
 20
5.785556
 30
0.0
 10
64.628889
 20
5.785556
 30
0.0
 10
64.628889
 20
39.370000
 30
0.0
 10
64.628889
 20
39.370000
 30
0.0
  0
LWPOLYLINE
  5
102
100
AcDbEntity
  8
Layer_1
 62
7
100
AcDbPolyline
 90
12
 70
0
 10
85.989583
 20
23.761787
 30
0.0
 10
87.863714
 20
23.761787
 30
0.0
 10
87.863714
 20
29.081016
 30
0.0
 10
85.939974
 20
28.684141
 30
0.0
 10
85.939974
 20
30.128326
 30
0.0
 10
87.852690
 20
30.525201
 30
0.0
 10
89.870139
 20
30.525201
 30
0.0
 10
89.870139
 20
23.761787
 30
0.0
 10
91.744269
 20
23.761787
 30
0.0
 10
91.744269
 20
22.295556
 30
0.0
 10
85.989583
 20
22.295556
 30
0.0
 10
85.989583
 20
23.761787
 30
0.0
  0
LWPOLYLINE
  5
103
100
AcDbEntity
  8
Layer_2
 62
1
100
AcDbPolyline
 90
14
 70
0
 10
8.184444
 20
67.592222
 30
0.0
 10
8.184444
 20
66.181111
 30
0.0
 10
8.184444
 20
29.774444
 30
0.0
 10
8.184444
 20
28.363333
 30
0.0
 10
9.595556
 20
28.363333
 30
0.0
 10
50.800000
 20
28.363333
 30
0.0
 10
52.211111
 20
28.363333
 30
0.0
 10
52.211111
 20
29.774444
 30
0.0
 10
52.211111
 20
66.181111
 30
0.0
 10
52.211111
 20
67.592222
 30
0.0
 10
50.800000
 20
67.592222
 30
0.0
 10
9.595556
 20
67.592222
 30
0.0
 10
8.184444
 20
67.592222
 30
0.0
 10
8.184444
 20
67.592222
 30
0.0
  0
LWPOLYLINE
  5
104
100
AcDbEntity
  8
Layer_2
 62
1
100
AcDbPolyline
 90
6
 70
0
 10
11.006667
 20
64.770000
 30
0.0
 10
49.388889
 20
64.770000
 30
0.0
 10
49.388889
 20
31.185556
 30
0.0
 10
11.006667
 20
31.185556
 30
0.0
 10
11.006667
 20
64.770000
 30
0.0
 10
11.006667
 20
64.770000
 30
0.0
  0
SPLINE
  5
105
100
AcDbEntity
  8
Layer_2
 62
1
100
AcDbSpline
 70
8
 71
3
 72
8
 73
4
 74
0
 40
0
 40
0
 40
0
 40
0
 40
1
 40
1
 40
1
 40
1
 10
31.554869
 20
46.826842
 30
0.0
 10
31.823124
 20
47.069369
 30
0.0
 10
32.021560
 20
47.306394
 30
0.0
 10
32.150183
 20
47.537909
 30
0.0
  0
SPLINE
  5
106
100
AcDbEntity
  8
Layer_2
 62
1
100
AcDbSpline
 70
8
 71
3
 72
8
 73
4
 74
0
 40
0
 40
0
 40
0
 40
0
 40
1
 40
1
 40
1
 40
1
 10
32.150183
 20
47.537909
 30
0.0
 10
32.278794
 20
47.769413
 30
0.0
 10
32.343104
 20
48.010109
 30
0.0
 10
32.343107
 20
48.260000
 30
0.0
  0
SPLINE
  5
107
100
AcDbEntity
  8
Layer_2
 62
1
100
AcDbSpline
 70
8
 71
3
 72
8
 73
4
 74
0
 40
0
 40
0
 40
0
 40
0
 40
1
 40
1
 40
1
 40
1
 10
32.343107
 20
48.260000
 30
0.0
 10
32.343104
 20
48.645846
 30
0.0
 10
32.212650
 20
48.956364
 30
0.0
 10
31.951744
 20
49.191553
 30
0.0
  0
SPLINE
  5
108
100
AcDbEntity
  8
Layer_2
 62
1
100
AcDbSpline
 70
8
 71
3
 72
8
 73
4
 74
0
 40
0
 40
0
 40
0
 40
0
 40
1
 40
1
 40
1
 40
1
 10
31.951744
 20
49.191553
 30
0.0
 10
31.694507
 20
49.426732
 30
0.0
 10
31.350915
 20
49.544326
 30
0.0
 10
30.920972
 20
49.544331
 30
0.0
  0
SPLINE
  5
109
100
AcDbEntity
  8
Layer_2
 62
1
100
AcDbSpline
 70
8
 71
3
 72
8
 73
4
 74
0
 40
0
 40
0
 40
0
 40
0
 40
1
 40
1
 40
1
 40
1
 10
30.920972
 20
49.544331
 30
0.0
 10
30.590239
 20
49.544326
 30
0.0
 10
30.228275
 20
49.472667
 30
0.0
 10
29.835077
 20
49.329357
 30
0.0
  0
SPLINE
  5
10a
100
AcDbEntity
  8
Layer_2
 62
1
100
AcDbSpline
 70
8
 71
3
 72
8
 73
4
 74
0
 40
0
 40
0
 40
0
 40
0
 40
1
 40
1
 40
1
 40
1
 10
29.835077
 20
49.329357
 30
0.0
 10
29.441877
 20
49.189711
 30
0.0
 10
29.021114
 20
48.980248
 30
0.0
 10
28.572796
 20
48.700972
 30
0.0
  0
LWPOLYLINE
  5
10b
100
AcDbEntity
  8
Layer_2
 62
1
100
AcDbPolyline
 90
6
 70
0
 10
30.909949
 20
44.175494
 30
0.0
 10
34.531433
 20
44.175494
 30
0.0
 10
34.531433
 20
42.615556
 30
0.0
 10
28.550746
 20
42.615556
 30
0.0
 10
28.550746
 20
44.175494
 30
0.0
 10
31.554869
 20
46.826842
 30
0.0
  0
SPLINE
  5
10c
100
AcDbEntity
  8
Layer_2
 62
1
100
AcDbSpline
 70
8
 71
3
 72
8
 73
4
 74
0
 40
0
 40
0
 40
0
 40
0
 40
1
 40
1
 40
1
 40
1
 10
28.572796
 20
50.508958
 30
0.0
 10
29.050513
 20
50.666966
 30
0.0
 10
29.522722
 20
50.786394
 30
0.0
 10
29.989419
 20
50.867248
 30
0.0
  0
SPLINE
  5
10d
100
AcDbEntity
  8
Layer_2
 62
1
100
AcDbSpline
 70
8
 71
3
 72
8
 73
4
 74
0
 40
0
 40
0
 40
0
 40
0
 40
1
 40
1
 40
1
 40
1
 10
29.989419
 20
50.867248
 30
0.0
 10
30.456110
 20
50.951759
 30
0.0
 10
30.913620
 20
50.994019
 30
0.0
 10
31.361944
 20
50.994028
 30
0.0
  0
SPLINE
  5
10e
100
AcDbEntity
  8
Layer_2
 62
1
100
AcDbSpline
 70
8
 71
3
 72
8
 73
4
 74
0
 40
0
 40
0
 40
0
 40
0
 40
1
 40
1
 40
1
 40
1
 10
31.361944
 20
50.994028
 30
0.0
 10
32.346779
 20
50.994019
 30
0.0
 10
33.111130
 20
50.777208
 30
0.0
 10
33.655000
 20
50.343593
 30
0.0
  0
SPLINE
  5
10f
100
AcDbEntity
  8
Layer_2
 62
1
100
AcDbSpline
 70
8
 71
3
 72
8
 73
4
 74
0
 40
0
 40
0
 40
0
 40
0
 40
1
 40
1
 40
1
 40
1
 10
33.655000
 20
50.343593
 30
0.0
 10
34.202534
 20
49.909964
 30
0.0
 10
34.476303
 20
49.305464
 30
0.0
 10
34.476312
 20
48.530095
 30
0.0
  0
SPLINE
  5
110
100
AcDbEntity
  8
Layer_2
 62
1
100
AcDbSpline
 70
8
 71
3
 72
8
 73
4
 74
0
 40
0
 40
0
 40
0
 40
0
 40
1
 40
1
 40
1
 40
1
 10
34.476312
 20
48.530095
 30
0.0
 10
34.476303
 20
48.081768
 30
0.0
 10
34.360550
 20
47.662846
 30
0.0
 10
34.129046
 20
47.273326
 30
0.0
  0
SPLINE
  5
111
100
AcDbEntity
  8
Layer_2
 62
1
100
AcDbSpline
 70
8
 71
3
 72
8
 73
4
 74
0
 40
0
 40
0
 40
0
 40
0
 40
1
 40
1
 40
1
 40
1
 10
34.129046
 20
47.273326
 30
0.0
 10
33.897528
 20
46.887469
 30
0.0
 10
33.410621
 20
46.369328
 30
0.0
 10
32.668326
 20
45.718897
 30
0.0
  0
LWPOLYLINE
  5
112
100
AcDbEntity
  8
Layer_2
 62
1
100
AcDbPolyline
 90
2
 70
0
 10
28.572796
 20
48.700972
 30
0.0
 10
28.572796
 20
50.508958
 30
0.0
  0
LWPOLYLINE
  5
113
100
AcDbEntity
  8
Layer_2
 62
1
100
AcDbPolyline
 90
2
 70
0
 10
32.668326
 20
45.718897
 30
0.0
 10
30.909949
 20
44.175494
 30
0.0
  0
LWPOLYLINE
  5
114
100
AcDbEntity
  8
Layer_3
 62
5
100
AcDbPolyline
 90
14
 70
0
 10
49.388889
 20
105.833333
 30
0.0
 10
49.388889
 20
104.422222
 30
0.0
 10
49.388889
 20
81.844444
 30
0.0
 10
49.388889
 20
80.433333
 30
0.0
 10
50.800000
 20
80.433333
 30
0.0
 10
81.844444
 20
80.433333
 30
0.0
 10
83.255556
 20
80.433333
 30
0.0
 10
83.255556
 20
81.844444
 30
0.0
 10
83.255556
 20
104.422222
 30
0.0
 10
83.255556
 20
105.833333
 30
0.0
 10
81.844444
 20
105.833333
 30
0.0
 10
50.800000
 20
105.833333
 30
0.0
 10
49.388889
 20
105.833333
 30
0.0
 10
49.388889
 20
105.833333
 30
0.0
  0
SPLINE
  5
115
100
AcDbEntity
  8
Layer_3
 62
5
100
AcDbSpline
 70
8
 71
3
 72
8
 73
4
 74
0
 40
0
 40
0
 40
0
 40
0
 40
1
 40
1
 40
1
 40
1
 10
89.925260
 20
97.570616
 30
0.0
 10
90.480145
 20
97.427296
 30
0.0
 10
90.900905
 20
97.177412
 30
0.0
 10
91.187544
 20
96.820963
 30
0.0
  0
SPLINE
  5
116
100
AcDbEntity
  8
Layer_3
 62
5
100
AcDbSpline
 70
8
 71
3
 72
8
 73
4
 74
0
 40
0
 40
0
 40
0
 40
0
 40
1
 40
1
 40
1
 40
1
 10
91.187544
 20
96.820963
 30
0.0
 10
91.477843
 20
96.468182
 30
0.0
 10
91.622996
 20
96.018024
 30
0.0
 10
91.623004
 20
95.470486
 30
0.0
  0
SPLINE
  5
117
100
AcDbEntity
  8
Layer_3
 62
5
100
AcDbSpline
 70
8
 71
3
 72
8
 73
4
 74
0
 40
0
 40
0
 40
0
 40
0
 40
1
 40
1
 40
1
 40
1
 10
91.623004
 20
95.470486
 30
0.0
 10
91.622996
 20
94.654686
 30
0.0
 10
91.310641
 20
94.033651
 30
0.0
 10
90.685936
 20
93.607379
 30
0.0
  0
SPLINE
  5
118
100
AcDbEntity
  8
Layer_3
 62
5
100
AcDbSpline
 70
8
 71
3
 72
8
 73
4
 74
0
 40
0
 40
0
 40
0
 40
0
 40
1
 40
1
 40
1
 40
1
 10
90.685936
 20
93.607379
 30
0.0
 10
90.061220
 20
93.184780
 30
0.0
 10
89.149880
 20
92.973481
 30
0.0
 10
87.951908
 20
92.973481
 30
0.0
  0
SPLINE
  5
119
100
AcDbEntity
  8
Layer_3
 62
5
100
AcDbSpline
 70
8
 71
3
 72
8
 73
4
 74
0
 40
0
 40
0
 40
0
 40
0
 40
1
 40
1
 40
1
 40
1
 10
87.951908
 20
92.973481
 30
0.0
 10
87.529309
 20
92.973481
 30
0.0
 10
87.104872
 20
93.008391
 30
0.0
 10
86.678603
 20
93.078212
 30
0.0
  0
SPLINE
  5
11a
100
AcDbEntity
  8
Layer_3
 62
5
100
AcDbSpline
 70
8
 71
3
 72
8
 73
4
 74
0
 40
0
 40
0
 40
0
 40
0
 40
1
 40
1
 40
1
 40
1
 10
86.678603
 20
93.078212
 30
0.0
 10
86.256001
 20
93.144357
 30
0.0
 10
85.837079
 20
93.245414
 30
0.0
 10
85.421831
 20
93.381380
 30
0.0
  0
LWPOLYLINE
  5
11b
100
AcDbEntity
  8
Layer_3
 62
5
100
AcDbPolyline
 90
6
 70
0
 10
52.211111
 20
103.011111
 30
0.0
 10
80.433333
 20
103.011111
 30
0.0
 10
80.433333
 20
83.255556
 30
0.0
 10
52.211111
 20
83.255556
 30
0.0
 10
52.211111
 20
103.011111
 30
0.0
 10
52.211111
 20
103.011111
 30
0.0
  0
SPLINE
  5
11c
100
AcDbEntity
  8
Layer_3
 62
5
100
AcDbSpline
 70
8
 71
3
 72
8
 73
4
 74
0
 40
0
 40
0
 40
0
 40
0
 40
1
 40
1
 40
1
 40
1
 10
85.421831
 20
95.018490
 30
0.0
 10
85.818706
 20
94.820051
 30
0.0
 10
86.211904
 20
94.669385
 30
0.0
 10
86.601433
 20
94.566493
 30
0.0
  0
SPLINE
  5
11d
100
AcDbEntity
  8
Layer_3
 62
5
100
AcDbSpline
 70
8
 71
3
 72
8
 73
4
 74
0
 40
0
 40
0
 40
0
 40
0
 40
1
 40
1
 40
1
 40
1
 10
86.601433
 20
94.566493
 30
0.0
 10
86.994630
 20
94.467273
 30
0.0
 10
87.380482
 20
94.417664
 30
0.0
 10
87.758984
 20
94.417665
 30
0.0
  0
SPLINE
  5
11e
100
AcDbEntity
  8
Layer_3
 62
5
100
AcDbSpline
 70
8
 71
3
 72
8
 73
4
 74
0
 40
0
 40
0
 40
0
 40
0
 40
1
 40
1
 40
1
 40
1
 10
87.758984
 20
94.417665
 30
0.0
 10
88.321221
 20
94.417664
 30
0.0
 10
88.751167
 20
94.515045
 30
0.0
 10
89.048827
 20
94.709809
 30
0.0
  0
SPLINE
  5
11f
100
AcDbEntity
  8
Layer_3
 62
5
100
AcDbSpline
 70
8
 71
3
 72
8
 73
4
 74
0
 40
0
 40
0
 40
0
 40
0
 40
1
 40
1
 40
1
 40
1
 10
89.048827
 20
94.709809
 30
0.0
 10
89.350156
 20
94.904570
 30
0.0
 10
89.500820
 20
95.183852
 30
0.0
 10
89.500826
 20
95.547656
 30
0.0
  0
SPLINE
  5
120
100
AcDbEntity
  8
Layer_3
 62
5
100
AcDbSpline
 70
8
 71
3
 72
8
 73
4
 74
0
 40
0
 40
0
 40
0
 40
0
 40
1
 40
1
 40
1
 40
1
 10
89.500826
 20
95.547656
 30
0.0
 10
89.500820
 20
95.922480
 30
0.0
 10
89.346478
 20
96.205437
 30
0.0
 10
89.037803
 20
96.396528
 30
0.0
  0
SPLINE
  5
121
100
AcDbEntity
  8
Layer_3
 62
5
100
AcDbSpline
 70
8
 71
3
 72
8
 73
4
 74
0
 40
0
 40
0
 40
0
 40
0
 40
1
 40
1
 40
1
 40
1
 10
89.037803
 20
96.396528
 30
0.0
 10
88.732795
 20
96.591287
 30
0.0
 10
88.280799
 20
96.688668
 30
0.0
 10
87.681813
 20
96.688672
 30
0.0
  0
LWPOLYLINE
  5
122
100
AcDbEntity
  8
Layer_3
 62
5
100
AcDbPolyline
 90
2
 70
0
 10
85.421831
 20
93.381380
 30
0.0
 10
85.421831
 20
95.018490
 30
0.0
  0
SPLINE
  5
123
100
AcDbEntity
  8
Layer_3
 62
5
100
AcDbSpline
 70
8
 71
3
 72
8
 73
4
 74
0
 40
0
 40
0
 40
0
 40
0
 40
1
 40
1
 40
1
 40
1
 10
87.725910
 20
98.055686
 30
0.0
 10
88.258749
 20
98.055681
 30
0.0
 10
88.655624
 20
98.138363
 30
0.0
 10
88.916535
 20
98.303733
 30
0.0
  0
SPLINE
  5
124
100
AcDbEntity
  8
Layer_3
 62
5
100
AcDbSpline
 70
8
 71
3
 72
8
 73
4
 74
0
 40
0
 40
0
 40
0
 40
0
 40
1
 40
1
 40
1
 40
1
 10
88.916535
 20
98.303733
 30
0.0
 10
89.177441
 20
98.472767
 30
0.0
 10
89.307896
 20
98.728163
 30
0.0
 10
89.307899
 20
99.069922
 30
0.0
  0
SPLINE
  5
125
100
AcDbEntity
  8
Layer_3
 62
5
100
AcDbSpline
 70
8
 71
3
 72
8
 73
4
 74
0
 40
0
 40
0
 40
0
 40
0
 40
1
 40
1
 40
1
 40
1
 10
89.307899
 20
99.069922
 30
0.0
 10
89.307896
 20
99.385946
 30
0.0
 10
89.181116
 20
99.630317
 30
0.0
 10
88.927562
 20
99.803038
 30
0.0
  0
SPLINE
  5
126
100
AcDbEntity
  8
Layer_3
 62
5
100
AcDbSpline
 70
8
 71
3
 72
8
 73
4
 74
0
 40
0
 40
0
 40
0
 40
0
 40
1
 40
1
 40
1
 40
1
 10
88.927562
 20
99.803038
 30
0.0
 10
88.673996
 20
99.975745
 30
0.0
 10
88.315707
 20
100.062103
 30
0.0
 10
87.852690
 20
100.062109
 30
0.0
  0
SPLINE
  5
127
100
AcDbEntity
  8
Layer_3
 62
5
100
AcDbSpline
 70
8
 71
3
 72
8
 73
4
 74
0
 40
0
 40
0
 40
0
 40
0
 40
1
 40
1
 40
1
 40
1
 10
87.852690
 20
100.062109
 30
0.0
 10
87.510933
 20
100.062103
 30
0.0
 10
87.165507
 20
100.023517
 30
0.0
 10
86.816407
 20
99.946354
 30
0.0
  0
SPLINE
  5
128
100
AcDbEntity
  8
Layer_3
 62
5
100
AcDbSpline
 70
8
 71
3
 72
8
 73
4
 74
0
 40
0
 40
0
 40
0
 40
0
 40
1
 40
1
 40
1
 40
1
 10
86.816407
 20
99.946354
 30
0.0
 10
86.467301
 20
99.869177
 30
0.0
 10
86.120035
 20
99.755260
 30
0.0
 10
85.774609
 20
99.604601
 30
0.0
  0
LWPOLYLINE
  5
129
100
AcDbEntity
  8
Layer_3
 62
5
100
AcDbPolyline
 90
4
 70
0
 10
87.681813
 20
96.688672
 30
0.0
 10
86.832942
 20
96.688672
 30
0.0
 10
86.832942
 20
98.055686
 30
0.0
 10
87.725910
 20
98.055686
 30
0.0
  0
SPLINE
  5
12a
100
AcDbEntity
  8
Layer_3
 62
5
100
AcDbSpline
 70
8
 71
3
 72
8
 73
4
 74
0
 40
0
 40
0
 40
0
 40
0
 40
1
 40
1
 40
1
 40
1
 10
85.774609
 20
101.159028
 30
0.0
 10
86.193531
 20
101.276612
 30
0.0
 10
86.608779
 20
101.364807
 30
0.0
 10
87.020355
 20
101.423611
 30
0.0
  0
SPLINE
  5
12b
100
AcDbEntity
  8
Layer_3
 62
5
100
AcDbSpline
 70
8
 71
3
 72
8
 73
4
 74
0
 40
0
 40
0
 40
0
 40
0
 40
1
 40
1
 40
1
 40
1
 10
87.020355
 20
101.423611
 30
0.0
 10
87.431928
 20
101.482399
 30
0.0
 10
87.836152
 20
101.511797
 30
0.0
 10
88.233030
 20
101.511806
 30
0.0
  0
SPLINE
  5
12c
100
AcDbEntity
  8
Layer_3
 62
5
100
AcDbSpline
 70
8
 71
3
 72
8
 73
4
 74
0
 40
0
 40
0
 40
0
 40
0
 40
1
 40
1
 40
1
 40
1
 10
88.233030
 20
101.511806
 30
0.0
 10
89.302381
 20
101.511797
 30
0.0
 10
90.101643
 20
101.335408
 30
0.0
 10
90.630815
 20
100.982639
 30
0.0
  0
SPLINE
  5
12d
100
AcDbEntity
  8
Layer_3
 62
5
100
AcDbSpline
 70
8
 71
3
 72
8
 73
4
 74
0
 40
0
 40
0
 40
0
 40
0
 40
1
 40
1
 40
1
 40
1
 10
90.630815
 20
100.982639
 30
0.0
 10
91.163651
 20
100.633528
 30
0.0
 10
91.430071
 20
100.106200
 30
0.0
 10
91.430077
 20
99.400651
 30
0.0
  0
SPLINE
  5
12e
100
AcDbEntity
  8
Layer_3
 62
5
100
AcDbSpline
 70
8
 71
3
 72
8
 73
4
 74
0
 40
0
 40
0
 40
0
 40
0
 40
1
 40
1
 40
1
 40
1
 10
91.430077
 20
99.400651
 30
0.0
 10
91.430071
 20
98.919251
 30
0.0
 10
91.303292
 20
98.524213
 30
0.0
 10
91.049740
 20
98.215538
 30
0.0
  0
SPLINE
  5
12f
100
AcDbEntity
  8
Layer_3
 62
5
100
AcDbSpline
 70
8
 71
3
 72
8
 73
4
 74
0
 40
0
 40
0
 40
0
 40
0
 40
1
 40
1
 40
1
 40
1
 10
91.049740
 20
98.215538
 30
0.0
 10
90.796175
 20
97.910528
 30
0.0
 10
90.421347
 20
97.695554
 30
0.0
 10
89.925260
 20
97.570616
 30
0.0
  0
LWPOLYLINE
  5
130
100
AcDbEntity
  8
Layer_3
 62
5
100
AcDbPolyline
 90
2
 70
0
 10
85.774609
 20
99.604601
 30
0.0
 10
85.774609
 20
101.159028
 30
0.0
  0
ENDSEC
  0
SECTION
  2
OBJECTS
  0
DICTIONARY
  5
C
330
0
100
AcDbDictionary
  3
ACAD_GROUP
350
D
  3
ACAD_MLINESTYLE
350
17
  0
DICTIONARY
  5
D
330
C
100
AcDbDictionary
  0
DICTIONARY
  5
1A
330
C
100
AcDbDictionary
  0
DICTIONARY
  5
17
330
C
100
AcDbDictionary
  3
STANDARD
350
18
  0
DICTIONARY
  5
19
330
C
100
AcDbDictionary
  0
ENDSEC
  0
EOF
