999
DXF created by Inkscape
  0
SECTION
  2
HEADER
  9
$ACADVER
  1
AC1014
  9
$HANDSEED
  5
FFFF
  9
$MEASUREMENT
 70
     1
  0
ENDSEC
  0
SECTION
  2
TABLES
  0
TABLE
  2
VPORT
  5
8
330
0
100
AcDbSymbolTable
 70
     4
  0
VPORT
  5
2E
330
8
100
AcDbSymbolTableRecord
100
AcDbViewportTableRecord
  2
*ACTIVE
 70
     0
 10
0.0
 20
0.0
 11
1.0
 21
1.0
 12
210.0
 22
148.5
 13
0.0
 23
0.0
 14
10.0
 24
10.0
 15
10.0
 25
10.0
 16
0.0
 26
0.0
 36
1.0
 17
0.0
 27
0.0
 37
0.0
 40
341.0
 41
1.24
 42
50.0
 43
0.0
 44
0.0
 50
0.0
 51
0.0
 71
     0
 72
   100
 73
     1
 74
     3
 75
     0
 76
     0
 77
     0
 78
     0
  0
ENDTAB
  0
TABLE
  2
LTYPE
  5
5
330
0
100
AcDbSymbolTable
 70
     1
  0
LTYPE
  5
14
330
5
100
AcDbSymbolTableRecord
100
AcDbLinetypeTableRecord
  2
BYBLOCK
 70
     0
  3

 72
    65
 73
     0
 40
0.0
  0
LTYPE
  5
15
330
5
100
AcDbSymbolTableRecord
100
AcDbLinetypeTableRecord
  2
BYLAYER
 70
     0
  3

 72
    65
 73
     0
 40
0.0
  0
LTYPE
  5
16
330
5
100
AcDbSymbolTableRecord
100
AcDbLinetypeTableRecord
  2
CONTINUOUS
 70
     0
  3
Solid line
 72
    65
 73
     0
 40
0.0
  0
ENDTAB
  0
TABLE
  2
LAYER
  5
2
330
0
100
AcDbSymbolTable
 70
1
  0
LAYER
  5
10
330
2
100
AcDbSymbolTableRecord
100
AcDbLayerTableRecord
  2
0
 70
     0
 62
     7
  6
CONTINUOUS
  0
ENDTAB
  0
TABLE
  2
STYLE
  5
3
330
0
100
AcDbSymbolTable
 70
     1
  0
STYLE
  5
11
330
3
100
AcDbSymbolTableRecord
100
AcDbTextStyleTableRecord
  2
STANDARD
 70
     0
 40
0.0
 41
1.0
 50
0.0
 71
     0
 42
2.5
  3
txt
  4

  0
ENDTAB
  0
TABLE
  2
VIEW
  5
6
330
0
100
AcDbSymbolTable
 70
     0
  0
ENDTAB
  0
TABLE
  2
UCS
  5
7
330
0
100
AcDbSymbolTable
 70
     0
  0
ENDTAB
  0
TABLE
  2
APPID
  5
9
330
0
100
AcDbSymbolTable
 70
     2
  0
APPID
  5
12
330
9
100
AcDbSymbolTableRecord
100
AcDbRegAppTableRecord
  2
ACAD
 70
     0
  0
ENDTAB
  0
TABLE
  2
DIMSTYLE
  5
A
330
0
100
AcDbSymbolTable
 70
     1
  0
DIMSTYLE
105
27
330
A
100
AcDbSymbolTableRecord
100
AcDbDimStyleTableRecord
  2
ISO-25
 70
     0
  3

  4

  5

  6

  7

 40
1.0
 41
2.5
 42
0.625
 43
3.75
 44
1.25
 45
0.0
 46
0.0
 47
0.0
 48
0.0
140
2.5
141
2.5
142
0.0
143
0.03937007874016
144
1.0
145
0.0
146
1.0
147
0.625
 71
     0
 72
     0
 73
     0
 74
     0
 75
     0
 76
     0
 77
     1
 78
     8
170
     0
171
     3
172
     1
173
     0
174
     0
175
     0
176
     0
177
     0
178
     0
270
     2
271
     2
272
     2
273
     2
274
     3
340
11
275
     0
280
     0
281
     0
282
     0
283
     0
284
     8
285
     0
286
     0
287
     3
288
     0
  0
ENDTAB
  0
TABLE
  2
BLOCK_RECORD
  5
1
330
0
100
AcDbSymbolTable
 70
     1
  0
BLOCK_RECORD
  5
1F
330
1
100
AcDbSymbolTableRecord
100
AcDbBlockTableRecord
  2
*MODEL_SPACE
  0
BLOCK_RECORD
  5
1B
330
1
100
AcDbSymbolTableRecord
100
AcDbBlockTableRecord
  2
*PAPER_SPACE
  0
ENDTAB
  0
ENDSEC
  0
SECTION
  2
BLOCKS
  0
BLOCK
  5
20
330
1F
100
AcDbEntity
  8
0
100
AcDbBlockBegin
  2
*MODEL_SPACE
 70
     0
 10
0.0
 20
0.0
 30
0.0
  3
*MODEL_SPACE
  1

  0
ENDBLK
  5
21
330
1F
100
AcDbEntity
  8
0
100
AcDbBlockEnd
  0
BLOCK
  5
1C
330
1B
100
AcDbEntity
 67
     1
  8
0
100
AcDbBlockBegin
  2
*PAPER_SPACE
  1

  0
ENDBLK
  5
1D
330
1B
100
AcDbEntity
 67
     1
  8
0
100
AcDbBlockEnd
  0
ENDSEC
  0
SECTION
  2
ENTITIES
  0
SPLINE
  5
100
100
AcDbEntity
  8
0
 62
7
100
AcDbSpline
 70
8
 71
3
 72
8
 73
4
 74
0
 40
0
 40
0
 40
0
 40
0
 40
1
 40
1
 40
1
 40
1
 10
8.869838
 20
138.046998
 30
0.0
 10
8.869838
 20
83.048203
 30
0.0
 10
53.455169
 20
38.462869
 30
0.0
 10
108.453964
 20
38.462869
 30
0.0
  0
SPLINE
  5
101
100
AcDbEntity
  8
0
 62
7
100
AcDbSpline
 70
8
 71
3
 72
8
 73
4
 74
0
 40
0
 40
0
 40
0
 40
0
 40
1
 40
1
 40
1
 40
1
 10
108.453964
 20
38.462869
 30
0.0
 10
163.452762
 20
38.462869
 30
0.0
 10
208.038093
 20
83.048203
 30
0.0
 10
208.038093
 20
138.046998
 30
0.0
  0
SPLINE
  5
102
100
AcDbEntity
  8
0
 62
7
100
AcDbSpline
 70
8
 71
3
 72
8
 73
4
 74
0
 40
0
 40
0
 40
0
 40
0
 40
1
 40
1
 40
1
 40
1
 10
208.038093
 20
138.046998
 30
0.0
 10
208.038093
 20
193.045793
 30
0.0
 10
163.452762
 20
237.631127
 30
0.0
 10
108.453964
 20
237.631127
 30
0.0
  0
SPLINE
  5
103
100
AcDbEntity
  8
0
 62
7
100
AcDbSpline
 70
8
 71
3
 72
8
 73
4
 74
0
 40
0
 40
0
 40
0
 40
0
 40
1
 40
1
 40
1
 40
1
 10
108.453964
 20
237.631127
 30
0.0
 10
53.455169
 20
237.631127
 30
0.0
 10
8.869838
 20
193.045793
 30
0.0
 10
8.869838
 20
138.046998
 30
0.0
  0
SPLINE
  5
104
100
AcDbEntity
  8
0
 62
7
100
AcDbSpline
 70
8
 71
3
 72
8
 73
4
 74
0
 40
0
 40
0
 40
0
 40
0
 40
1
 40
1
 40
1
 40
1
 10
183.855527
 20
139.659689
 30
0.0
 10
183.855527
 20
98.461893
 30
0.0
 10
150.458116
 20
65.064483
 30
0.0
 10
109.260321
 20
65.064483
 30
0.0
  0
SPLINE
  5
105
100
AcDbEntity
  8
0
 62
7
100
AcDbSpline
 70
8
 71
3
 72
8
 73
4
 74
0
 40
0
 40
0
 40
0
 40
0
 40
1
 40
1
 40
1
 40
1
 10
109.260321
 20
65.064483
 30
0.0
 10
68.062526
 20
65.064483
 30
0.0
 10
34.665113
 20
98.461893
 30
0.0
 10
34.665113
 20
139.659689
 30
0.0
  0
SPLINE
  5
106
100
AcDbEntity
  8
0
 62
7
100
AcDbSpline
 70
8
 71
3
 72
8
 73
4
 74
0
 40
0
 40
0
 40
0
 40
0
 40
1
 40
1
 40
1
 40
1
 10
34.665113
 20
139.659689
 30
0.0
 10
34.665113
 20
180.857484
 30
0.0
 10
68.062526
 20
214.254897
 30
0.0
 10
109.260321
 20
214.254897
 30
0.0
  0
SPLINE
  5
107
100
AcDbEntity
  8
0
 62
7
100
AcDbSpline
 70
8
 71
3
 72
8
 73
4
 74
0
 40
0
 40
0
 40
0
 40
0
 40
1
 40
1
 40
1
 40
1
 10
109.260321
 20
214.254897
 30
0.0
 10
150.458116
 20
214.254897
 30
0.0
 10
183.855527
 20
180.857484
 30
0.0
 10
183.855527
 20
139.659689
 30
0.0
  0
LWPOLYLINE
  5
108
100
AcDbEntity
  8
0
 62
7
100
AcDbPolyline
 90
2
 70
0
 10
8.869838
 20
138.046998
 30
0.0
 10
8.869838
 20
138.046998
 30
0.0
  0
SPLINE
  5
109
100
AcDbEntity
  8
0
 62
7
100
AcDbSpline
 70
8
 71
3
 72
8
 73
4
 74
0
 40
0
 40
0
 40
0
 40
0
 40
1
 40
1
 40
1
 40
1
 10
189.667010
 20
135.472025
 30
0.0
 10
188.384567
 20
135.733266
 30
0.0
 10
187.631697
 20
136.069040
 30
0.0
 10
187.408399
 20
136.479341
 30
0.0
  0
SPLINE
  5
10a
100
AcDbEntity
  8
0
 62
7
100
AcDbSpline
 70
8
 71
3
 72
8
 73
4
 74
0
 40
0
 40
0
 40
0
 40
0
 40
1
 40
1
 40
1
 40
1
 10
187.408399
 20
136.479341
 30
0.0
 10
187.185097
 20
136.889649
 30
0.0
 10
187.075617
 20
137.276966
 30
0.0
 10
187.079961
 20
137.641297
 30
0.0
  0
SPLINE
  5
10b
100
AcDbEntity
  8
0
 62
7
100
AcDbSpline
 70
8
 71
3
 72
8
 73
4
 74
0
 40
0
 40
0
 40
0
 40
0
 40
1
 40
1
 40
1
 40
1
 10
187.079961
 20
137.641297
 30
0.0
 10
187.084307
 20
138.005632
 30
0.0
 10
186.786712
 20
138.249461
 30
0.0
 10
186.187196
 20
138.372786
 30
0.0
  0
SPLINE
  5
10c
100
AcDbEntity
  8
0
 62
7
100
AcDbSpline
 70
8
 71
3
 72
8
 73
4
 74
0
 40
0
 40
0
 40
0
 40
0
 40
1
 40
1
 40
1
 40
1
 10
186.187196
 20
138.372786
 30
0.0
 10
185.628506
 20
138.431269
 30
0.0
 10
185.186142
 20
138.256765
 30
0.0
 10
184.860102
 20
137.849281
 30
0.0
  0
SPLINE
  5
10d
100
AcDbEntity
  8
0
 62
7
100
AcDbSpline
 70
8
 71
3
 72
8
 73
4
 74
0
 40
0
 40
0
 40
0
 40
0
 40
1
 40
1
 40
1
 40
1
 10
184.860102
 20
137.849281
 30
0.0
 10
184.534062
 20
137.441797
 30
0.0
 10
184.332445
 20
136.985814
 30
0.0
 10
184.255252
 20
136.481325
 30
0.0
  0
SPLINE
  5
10e
100
AcDbEntity
  8
0
 62
7
100
AcDbSpline
 70
8
 71
3
 72
8
 73
4
 74
0
 40
0
 40
0
 40
0
 40
0
 40
1
 40
1
 40
1
 40
1
 10
184.255252
 20
136.481325
 30
0.0
 10
184.126618
 20
135.677832
 30
0.0
 10
184.028080
 20
134.883806
 30
0.0
 10
183.959638
 20
134.099248
 30
0.0
  0
SPLINE
  5
10f
100
AcDbEntity
  8
0
 62
7
100
AcDbSpline
 70
8
 71
3
 72
8
 73
4
 74
0
 40
0
 40
0
 40
0
 40
0
 40
1
 40
1
 40
1
 40
1
 10
183.959638
 20
134.099248
 30
0.0
 10
183.911508
 20
133.705630
 30
0.0
 10
183.861078
 20
133.308803
 30
0.0
 10
183.808347
 20
132.908767
 30
0.0
  0
SPLINE
  5
110
100
AcDbEntity
  8
0
 62
7
100
AcDbSpline
 70
8
 71
3
 72
8
 73
4
 74
0
 40
0
 40
0
 40
0
 40
0
 40
1
 40
1
 40
1
 40
1
 10
183.808347
 20
132.908767
 30
0.0
 10
183.755620
 20
132.508739
 30
0.0
 10
183.698221
 20
132.113030
 30
0.0
 10
183.636155
 20
131.721630
 30
0.0
  0
SPLINE
  5
111
100
AcDbEntity
  8
0
 62
7
100
AcDbSpline
 70
8
 71
3
 72
8
 73
4
 74
0
 40
0
 40
0
 40
0
 40
0
 40
1
 40
1
 40
1
 40
1
 10
183.636155
 20
131.721630
 30
0.0
 10
183.573581
 20
131.334494
 30
0.0
 10
183.505503
 20
130.946447
 30
0.0
 10
183.431919
 20
130.557486
 30
0.0
  0
SPLINE
  5
112
100
AcDbEntity
  8
0
 62
7
100
AcDbSpline
 70
8
 71
3
 72
8
 73
4
 74
0
 40
0
 40
0
 40
0
 40
0
 40
1
 40
1
 40
1
 40
1
 10
183.431919
 20
130.557486
 30
0.0
 10
183.358336
 20
130.168544
 30
0.0
 10
183.279946
 20
129.760713
 30
0.0
 10
183.196744
 20
129.333990
 30
0.0
  0
SPLINE
  5
113
100
AcDbEntity
  8
0
 62
7
100
AcDbSpline
 70
8
 71
3
 72
8
 73
4
 74
0
 40
0
 40
0
 40
0
 40
0
 40
1
 40
1
 40
1
 40
1
 10
183.196744
 20
129.333990
 30
0.0
 10
183.099913
 20
128.907685
 30
0.0
 10
183.003912
 20
128.441937
 30
0.0
 10
182.908744
 20
127.936745
 30
0.0
  0
SPLINE
  5
114
100
AcDbEntity
  8
0
 62
7
100
AcDbSpline
 70
8
 71
3
 72
8
 73
4
 74
0
 40
0
 40
0
 40
0
 40
0
 40
1
 40
1
 40
1
 40
1
 10
182.908744
 20
127.936745
 30
0.0
 10
182.813579
 20
127.431576
 30
0.0
 10
182.718129
 20
126.879998
 30
0.0
 10
182.622393
 20
126.282005
 30
0.0
  0
SPLINE
  5
115
100
AcDbEntity
  8
0
 62
7
100
AcDbSpline
 70
8
 71
3
 72
8
 73
4
 74
0
 40
0
 40
0
 40
0
 40
0
 40
1
 40
1
 40
1
 40
1
 10
182.622393
 20
126.282005
 30
0.0
 10
182.275328
 20
123.933409
 30
0.0
 10
182.453977
 20
121.939407
 30
0.0
 10
183.158339
 20
120.299998
 30
0.0
  0
SPLINE
  5
116
100
AcDbEntity
  8
0
 62
7
100
AcDbSpline
 70
8
 71
3
 72
8
 73
4
 74
0
 40
0
 40
0
 40
0
 40
0
 40
1
 40
1
 40
1
 40
1
 10
183.158339
 20
120.299998
 30
0.0
 10
183.862703
 20
118.660628
 30
0.0
 10
184.917732
 20
117.366823
 30
0.0
 10
186.323430
 20
116.418581
 30
0.0
  0
SPLINE
  5
117
100
AcDbEntity
  8
0
 62
7
100
AcDbSpline
 70
8
 71
3
 72
8
 73
4
 74
0
 40
0
 40
0
 40
0
 40
0
 40
1
 40
1
 40
1
 40
1
 10
186.323430
 20
116.418581
 30
0.0
 10
187.729122
 20
115.470385
 30
0.0
 10
189.310433
 20
114.858725
 30
0.0
 10
191.067365
 20
114.583598
 30
0.0
  0
SPLINE
  5
118
100
AcDbEntity
  8
0
 62
7
100
AcDbSpline
 70
8
 71
3
 72
8
 73
4
 74
0
 40
0
 40
0
 40
0
 40
0
 40
1
 40
1
 40
1
 40
1
 10
191.067365
 20
114.583598
 30
0.0
 10
192.764943
 20
114.294910
 30
0.0
 10
194.406167
 20
114.355021
 30
0.0
 10
195.991037
 20
114.763930
 30
0.0
  0
SPLINE
  5
119
100
AcDbEntity
  8
0
 62
7
100
AcDbSpline
 70
8
 71
3
 72
8
 73
4
 74
0
 40
0
 40
0
 40
0
 40
0
 40
1
 40
1
 40
1
 40
1
 10
195.991037
 20
114.763930
 30
0.0
 10
197.575887
 20
115.172886
 30
0.0
 10
198.950978
 20
116.056823
 30
0.0
 10
200.116321
 20
117.415743
 30
0.0
  0
SPLINE
  5
11a
100
AcDbEntity
  8
0
 62
7
100
AcDbSpline
 70
8
 71
3
 72
8
 73
4
 74
0
 40
0
 40
0
 40
0
 40
0
 40
1
 40
1
 40
1
 40
1
 10
200.116321
 20
117.415743
 30
0.0
 10
201.281631
 20
118.774702
 30
0.0
 10
202.083789
 20
120.734826
 30
0.0
 10
202.522791
 20
123.296120
 30
0.0
  0
LWPOLYLINE
  5
11b
100
AcDbEntity
  8
0
 62
7
100
AcDbPolyline
 90
2
 70
0
 10
183.855527
 20
139.659689
 30
0.0
 10
183.855527
 20
139.659689
 30
0.0
  0
SPLINE
  5
11c
100
AcDbEntity
  8
0
 62
7
100
AcDbSpline
 70
8
 71
3
 72
8
 73
4
 74
0
 40
0
 40
0
 40
0
 40
0
 40
1
 40
1
 40
1
 40
1
 10
203.977198
 20
132.380763
 30
0.0
 10
204.081357
 20
132.912492
 30
0.0
 10
204.084103
 20
133.480103
 30
0.0
 10
203.985439
 20
134.083598
 30
0.0
  0
SPLINE
  5
11d
100
AcDbEntity
  8
0
 62
7
100
AcDbSpline
 70
8
 71
3
 72
8
 73
4
 74
0
 40
0
 40
0
 40
0
 40
0
 40
1
 40
1
 40
1
 40
1
 10
203.985439
 20
134.083598
 30
0.0
 10
203.886731
 20
134.687105
 30
0.0
 10
203.529971
 20
135.062187
 30
0.0
 10
202.915156
 20
135.208844
 30
0.0
  0
SPLINE
  5
11e
100
AcDbEntity
  8
0
 62
7
100
AcDbSpline
 70
8
 71
3
 72
8
 73
4
 74
0
 40
0
 40
0
 40
0
 40
0
 40
1
 40
1
 40
1
 40
1
 10
202.915156
 20
135.208844
 30
0.0
 10
202.353268
 20
135.271983
 30
0.0
 10
201.984554
 20
135.146470
 30
0.0
 10
201.809011
 20
134.832303
 30
0.0
  0
SPLINE
  5
11f
100
AcDbEntity
  8
0
 62
7
100
AcDbSpline
 70
8
 71
3
 72
8
 73
4
 74
0
 40
0
 40
0
 40
0
 40
0
 40
1
 40
1
 40
1
 40
1
 10
201.809011
 20
134.832303
 30
0.0
 10
201.633435
 20
134.518147
 30
0.0
 10
201.399541
 20
134.216497
 30
0.0
 10
201.107331
 20
133.927360
 30
0.0
  0
SPLINE
  5
120
100
AcDbEntity
  8
0
 62
7
100
AcDbSpline
 70
8
 71
3
 72
8
 73
4
 74
0
 40
0
 40
0
 40
0
 40
0
 40
1
 40
1
 40
1
 40
1
 10
201.107331
 20
133.927360
 30
0.0
 10
200.815087
 20
133.638232
 30
0.0
 10
200.213033
 20
133.562777
 30
0.0
 10
199.301171
 20
133.700995
 30
0.0
  0
LWPOLYLINE
  5
121
100
AcDbEntity
  8
0
 62
7
100
AcDbPolyline
 90
2
 70
0
 10
202.522791
 20
123.296120
 30
0.0
 10
203.977198
 20
132.380763
 30
0.0
  0
SPLINE
  5
122
100
AcDbEntity
  8
0
 62
7
100
AcDbSpline
 70
8
 71
3
 72
8
 73
4
 74
0
 40
0
 40
0
 40
0
 40
0
 40
1
 40
1
 40
1
 40
1
 10
198.425508
 20
126.981685
 30
0.0
 10
198.955990
 20
126.918205
 30
0.0
 10
199.333770
 20
126.793415
 30
0.0
 10
199.558842
 20
126.607320
 30
0.0
  0
SPLINE
  5
123
100
AcDbEntity
  8
0
 62
7
100
AcDbSpline
 70
8
 71
3
 72
8
 73
4
 74
0
 40
0
 40
0
 40
0
 40
0
 40
1
 40
1
 40
1
 40
1
 10
199.558842
 20
126.607320
 30
0.0
 10
199.783886
 20
126.421251
 30
0.0
 10
199.850081
 20
126.046243
 30
0.0
 10
199.757431
 20
125.482295
 30
0.0
  0
SPLINE
  5
124
100
AcDbEntity
  8
0
 62
7
100
AcDbSpline
 70
8
 71
3
 72
8
 73
4
 74
0
 40
0
 40
0
 40
0
 40
0
 40
1
 40
1
 40
1
 40
1
 10
199.757431
 20
125.482295
 30
0.0
 10
199.667707
 20
124.745622
 30
0.0
 10
199.383588
 20
124.057521
 30
0.0
 10
198.905077
 20
123.417997
 30
0.0
  0
SPLINE
  5
125
100
AcDbEntity
  8
0
 62
7
100
AcDbSpline
 70
8
 71
3
 72
8
 73
4
 74
0
 40
0
 40
0
 40
0
 40
0
 40
1
 40
1
 40
1
 40
1
 10
198.905077
 20
123.417997
 30
0.0
 10
198.426538
 20
122.778504
 30
0.0
 10
197.604826
 20
122.316202
 30
0.0
 10
196.439942
 20
122.031090
 30
0.0
  0
SPLINE
  5
126
100
AcDbEntity
  8
0
 62
7
100
AcDbSpline
 70
8
 71
3
 72
8
 73
4
 74
0
 40
0
 40
0
 40
0
 40
0
 40
1
 40
1
 40
1
 40
1
 10
196.439942
 20
122.031090
 30
0.0
 10
195.275033
 20
121.746011
 30
0.0
 10
193.618172
 20
121.766738
 30
0.0
 10
191.469351
 20
122.093272
 30
0.0
  0
SPLINE
  5
127
100
AcDbEntity
  8
0
 62
7
100
AcDbSpline
 70
8
 71
3
 72
8
 73
4
 74
0
 40
0
 40
0
 40
0
 40
0
 40
1
 40
1
 40
1
 40
1
 10
191.469351
 20
122.093272
 30
0.0
 10
190.511007
 20
122.232246
 30
0.0
 10
189.562097
 20
122.482961
 30
0.0
 10
188.622610
 20
122.845419
 30
0.0
  0
SPLINE
  5
128
100
AcDbEntity
  8
0
 62
7
100
AcDbSpline
 70
8
 71
3
 72
8
 73
4
 74
0
 40
0
 40
0
 40
0
 40
0
 40
1
 40
1
 40
1
 40
1
 10
188.622610
 20
122.845419
 30
0.0
 10
187.683117
 20
123.207908
 30
0.0
 10
186.929674
 20
123.740665
 30
0.0
 10
186.362278
 20
124.443689
 30
0.0
  0
SPLINE
  5
129
100
AcDbEntity
  8
0
 62
7
100
AcDbSpline
 70
8
 71
3
 72
8
 73
4
 74
0
 40
0
 40
0
 40
0
 40
0
 40
1
 40
1
 40
1
 40
1
 10
186.362278
 20
124.443689
 30
0.0
 10
185.794879
 20
125.146744
 30
0.0
 10
185.590149
 20
126.078594
 30
0.0
 10
185.748089
 20
127.239241
 30
0.0
  0
SPLINE
  5
12a
100
AcDbEntity
  8
0
 62
7
100
AcDbSpline
 70
8
 71
3
 72
8
 73
4
 74
0
 40
0
 40
0
 40
0
 40
0
 40
1
 40
1
 40
1
 40
1
 10
185.748089
 20
127.239241
 30
0.0
 10
185.859790
 20
127.970434
 30
0.0
 10
186.092756
 20
128.421399
 30
0.0
 10
186.446990
 20
128.592138
 30
0.0
  0
SPLINE
  5
12b
100
AcDbEntity
  8
0
 62
7
100
AcDbSpline
 70
8
 71
3
 72
8
 73
4
 74
0
 40
0
 40
0
 40
0
 40
0
 40
1
 40
1
 40
1
 40
1
 10
186.446990
 20
128.592138
 30
0.0
 10
186.801224
 20
128.762897
 30
0.0
 10
187.329264
 20
128.780776
 30
0.0
 10
188.031120
 20
128.645775
 30
0.0
  0
LWPOLYLINE
  5
12c
100
AcDbEntity
  8
0
 62
7
100
AcDbPolyline
 90
2
 70
0
 10
199.301171
 20
133.700995
 30
0.0
 10
189.667010
 20
135.472025
 30
0.0
  0
SPLINE
  5
12d
100
AcDbEntity
  8
0
 62
7
100
AcDbSpline
 70
8
 71
3
 72
8
 73
4
 74
0
 40
0
 40
0
 40
0
 40
0
 40
1
 40
1
 40
1
 40
1
 10
176.738269
 20
108.183484
 30
0.0
 10
176.140446
 20
106.897013
 30
0.0
 10
175.816271
 20
105.499802
 30
0.0
 10
175.765742
 20
103.991840
 30
0.0
  0
SPLINE
  5
12e
100
AcDbEntity
  8
0
 62
7
100
AcDbSpline
 70
8
 71
3
 72
8
 73
4
 74
0
 40
0
 40
0
 40
0
 40
0
 40
1
 40
1
 40
1
 40
1
 10
175.765742
 20
103.991840
 30
0.0
 10
175.715222
 20
102.483902
 30
0.0
 10
175.995449
 20
101.075144
 30
0.0
 10
176.606429
 20
99.765560
 30
0.0
  0
SPLINE
  5
12f
100
AcDbEntity
  8
0
 62
7
100
AcDbSpline
 70
8
 71
3
 72
8
 73
4
 74
0
 40
0
 40
0
 40
0
 40
0
 40
1
 40
1
 40
1
 40
1
 10
176.606429
 20
99.765560
 30
0.0
 10
177.217414
 20
98.456009
 30
0.0
 10
178.216255
 20
97.455560
 30
0.0
 10
179.602957
 20
96.764208
 30
0.0
  0
SPLINE
  5
130
100
AcDbEntity
  8
0
 62
7
100
AcDbSpline
 70
8
 71
3
 72
8
 73
4
 74
0
 40
0
 40
0
 40
0
 40
0
 40
1
 40
1
 40
1
 40
1
 10
179.602957
 20
96.764208
 30
0.0
 10
181.272541
 20
95.995621
 30
0.0
 10
183.067085
 20
95.899160
 30
0.0
 10
184.986594
 20
96.474826
 30
0.0
  0
SPLINE
  5
131
100
AcDbEntity
  8
0
 62
7
100
AcDbSpline
 70
8
 71
3
 72
8
 73
4
 74
0
 40
0
 40
0
 40
0
 40
0
 40
1
 40
1
 40
1
 40
1
 10
184.986594
 20
96.474826
 30
0.0
 10
186.906095
 20
97.050531
 30
0.0
 10
188.434156
 20
98.443665
 30
0.0
 10
189.570783
 20
100.654232
 30
0.0
  0
SPLINE
  5
132
100
AcDbEntity
  8
0
 62
7
100
AcDbSpline
 70
8
 71
3
 72
8
 73
4
 74
0
 40
0
 40
0
 40
0
 40
0
 40
1
 40
1
 40
1
 40
1
 10
189.570783
 20
100.654232
 30
0.0
 10
190.586323
 20
102.846379
 30
0.0
 10
190.857866
 20
105.035484
 30
0.0
 10
190.385412
 20
107.221552
 30
0.0
  0
SPLINE
  5
133
100
AcDbEntity
  8
0
 62
7
100
AcDbSpline
 70
8
 71
3
 72
8
 73
4
 74
0
 40
0
 40
0
 40
0
 40
0
 40
1
 40
1
 40
1
 40
1
 10
190.385412
 20
107.221552
 30
0.0
 10
189.912938
 20
109.407637
 30
0.0
 10
188.546283
 20
111.080475
 30
0.0
 10
186.285437
 20
112.240067
 30
0.0
  0
SPLINE
  5
134
100
AcDbEntity
  8
0
 62
7
100
AcDbSpline
 70
8
 71
3
 72
8
 73
4
 74
0
 40
0
 40
0
 40
0
 40
0
 40
1
 40
1
 40
1
 40
1
 10
186.285437
 20
112.240067
 30
0.0
 10
184.233199
 20
113.137232
 30
0.0
 10
182.359695
 20
113.170760
 30
0.0
 10
180.664922
 20
112.340651
 30
0.0
  0
SPLINE
  5
135
100
AcDbEntity
  8
0
 62
7
100
AcDbSpline
 70
8
 71
3
 72
8
 73
4
 74
0
 40
0
 40
0
 40
0
 40
0
 40
1
 40
1
 40
1
 40
1
 10
180.664922
 20
112.340651
 30
0.0
 10
178.970147
 20
111.510551
 30
0.0
 10
177.661262
 20
110.124828
 30
0.0
 10
176.738269
 20
108.183484
 30
0.0
  0
LWPOLYLINE
  5
136
100
AcDbEntity
  8
0
 62
7
100
AcDbPolyline
 90
2
 70
0
 10
188.031120
 20
128.645775
 30
0.0
 10
198.425508
 20
126.981685
 30
0.0
  0
SPLINE
  5
137
100
AcDbEntity
  8
0
 62
7
100
AcDbSpline
 70
8
 71
3
 72
8
 73
4
 74
0
 40
0
 40
0
 40
0
 40
0
 40
1
 40
1
 40
1
 40
1
 10
180.423315
 20
103.551026
 30
0.0
 10
179.991072
 20
103.739934
 30
0.0
 10
179.653624
 20
103.989520
 30
0.0
 10
179.410970
 20
104.299781
 30
0.0
  0
SPLINE
  5
138
100
AcDbEntity
  8
0
 62
7
100
AcDbSpline
 70
8
 71
3
 72
8
 73
4
 74
0
 40
0
 40
0
 40
0
 40
0
 40
1
 40
1
 40
1
 40
1
 10
179.410970
 20
104.299781
 30
0.0
 10
179.168318
 20
104.610062
 30
0.0
 10
179.162024
 20
105.000229
 30
0.0
 10
179.392089
 20
105.470281
 30
0.0
  0
SPLINE
  5
139
100
AcDbEntity
  8
0
 62
7
100
AcDbSpline
 70
8
 71
3
 72
8
 73
4
 74
0
 40
0
 40
0
 40
0
 40
0
 40
1
 40
1
 40
1
 40
1
 10
179.392089
 20
105.470281
 30
0.0
 10
179.737540
 20
106.018024
 30
0.0
 10
180.334875
 20
106.292002
 30
0.0
 10
181.184087
 20
106.292222
 30
0.0
  0
SPLINE
  5
13a
100
AcDbEntity
  8
0
 62
7
100
AcDbSpline
 70
8
 71
3
 72
8
 73
4
 74
0
 40
0
 40
0
 40
0
 40
0
 40
1
 40
1
 40
1
 40
1
 10
181.184087
 20
106.292222
 30
0.0
 10
182.033299
 20
106.292459
 30
0.0
 10
182.922872
 20
106.161105
 30
0.0
 10
183.852812
 20
105.898155
 30
0.0
  0
SPLINE
  5
13b
100
AcDbEntity
  8
0
 62
7
100
AcDbSpline
 70
8
 71
3
 72
8
 73
4
 74
0
 40
0
 40
0
 40
0
 40
0
 40
1
 40
1
 40
1
 40
1
 10
183.852812
 20
105.898155
 30
0.0
 10
184.782739
 20
105.635226
 30
0.0
 10
185.541514
 20
105.382871
 30
0.0
 10
186.129134
 20
105.141089
 30
0.0
  0
SPLINE
  5
13c
100
AcDbEntity
  8
0
 62
7
100
AcDbSpline
 70
8
 71
3
 72
8
 73
4
 74
0
 40
0
 40
0
 40
0
 40
0
 40
1
 40
1
 40
1
 40
1
 10
186.129134
 20
105.141089
 30
0.0
 10
186.527781
 20
104.981633
 30
0.0
 10
186.830248
 20
104.721207
 30
0.0
 10
187.036535
 20
104.359807
 30
0.0
  0
SPLINE
  5
13d
100
AcDbEntity
  8
0
 62
7
100
AcDbSpline
 70
8
 71
3
 72
8
 73
4
 74
0
 40
0
 40
0
 40
0
 40
0
 40
1
 40
1
 40
1
 40
1
 10
187.036535
 20
104.359807
 30
0.0
 10
187.242808
 20
103.998427
 30
0.0
 10
187.255051
 20
103.601566
 30
0.0
 10
187.073261
 20
103.169222
 30
0.0
  0
SPLINE
  5
13e
100
AcDbEntity
  8
0
 62
7
100
AcDbSpline
 70
8
 71
3
 72
8
 73
4
 74
0
 40
0
 40
0
 40
0
 40
0
 40
1
 40
1
 40
1
 40
1
 10
187.073261
 20
103.169222
 30
0.0
 10
186.755416
 20
102.617184
 30
0.0
 10
186.144913
 20
102.352860
 30
0.0
 10
185.241751
 20
102.376251
 30
0.0
  0
SPLINE
  5
13f
100
AcDbEntity
  8
0
 62
7
100
AcDbSpline
 70
8
 71
3
 72
8
 73
4
 74
0
 40
0
 40
0
 40
0
 40
0
 40
1
 40
1
 40
1
 40
1
 10
185.241751
 20
102.376251
 30
0.0
 10
184.338578
 20
102.399675
 30
0.0
 10
183.416914
 20
102.549572
 30
0.0
 10
182.476761
 20
102.825966
 30
0.0
  0
SPLINE
  5
140
100
AcDbEntity
  8
0
 62
7
100
AcDbSpline
 70
8
 71
3
 72
8
 73
4
 74
0
 40
0
 40
0
 40
0
 40
0
 40
1
 40
1
 40
1
 40
1
 10
182.476761
 20
102.825966
 30
0.0
 10
181.536600
 20
103.102386
 30
0.0
 10
180.852120
 20
103.344073
 30
0.0
 10
180.423315
 20
103.551026
 30
0.0
  0
LWPOLYLINE
  5
141
100
AcDbEntity
  8
0
 62
7
100
AcDbPolyline
 90
2
 70
0
 10
176.738269
 20
108.183484
 30
0.0
 10
176.738269
 20
108.183484
 30
0.0
  0
SPLINE
  5
142
100
AcDbEntity
  8
0
 62
7
100
AcDbSpline
 70
8
 71
3
 72
8
 73
4
 74
0
 40
0
 40
0
 40
0
 40
0
 40
1
 40
1
 40
1
 40
1
 10
167.472944
 20
93.075050
 30
0.0
 10
166.587164
 20
91.966995
 30
0.0
 10
165.940971
 20
90.686479
 30
0.0
 10
165.534363
 20
89.233492
 30
0.0
  0
SPLINE
  5
143
100
AcDbEntity
  8
0
 62
7
100
AcDbSpline
 70
8
 71
3
 72
8
 73
4
 74
0
 40
0
 40
0
 40
0
 40
0
 40
1
 40
1
 40
1
 40
1
 10
165.534363
 20
89.233492
 30
0.0
 10
165.127771
 20
87.780525
 30
0.0
 10
165.066012
 20
86.345492
 30
0.0
 10
165.349084
 20
84.928392
 30
0.0
  0
SPLINE
  5
144
100
AcDbEntity
  8
0
 62
7
100
AcDbSpline
 70
8
 71
3
 72
8
 73
4
 74
0
 40
0
 40
0
 40
0
 40
0
 40
1
 40
1
 40
1
 40
1
 10
165.349084
 20
84.928392
 30
0.0
 10
165.632172
 20
83.511321
 30
0.0
 10
166.365343
 20
82.302583
 30
0.0
 10
167.548594
 20
81.302176
 30
0.0
  0
SPLINE
  5
145
100
AcDbEntity
  8
0
 62
7
100
AcDbSpline
 70
8
 71
3
 72
8
 73
4
 74
0
 40
0
 40
0
 40
0
 40
0
 40
1
 40
1
 40
1
 40
1
 10
167.548594
 20
81.302176
 30
0.0
 10
168.988353
 20
80.159667
 30
0.0
 10
170.708865
 20
79.640493
 30
0.0
 10
172.710128
 20
79.744653
 30
0.0
  0
SPLINE
  5
146
100
AcDbEntity
  8
0
 62
7
100
AcDbSpline
 70
8
 71
3
 72
8
 73
4
 74
0
 40
0
 40
0
 40
0
 40
0
 40
1
 40
1
 40
1
 40
1
 10
172.710128
 20
79.744653
 30
0.0
 10
174.711394
 20
79.848855
 30
0.0
 10
176.526182
 20
80.839986
 30
0.0
 10
178.154497
 20
82.718048
 30
0.0
  0
SPLINE
  5
147
100
AcDbEntity
  8
0
 62
7
100
AcDbSpline
 70
8
 71
3
 72
8
 73
4
 74
0
 40
0
 40
0
 40
0
 40
0
 40
1
 40
1
 40
1
 40
1
 10
178.154497
 20
82.718048
 30
0.0
 10
179.660812
 20
84.606922
 30
0.0
 10
180.443621
 20
86.669232
 30
0.0
 10
180.502927
 20
88.904985
 30
0.0
  0
SPLINE
  5
148
100
AcDbEntity
  8
0
 62
7
100
AcDbSpline
 70
8
 71
3
 72
8
 73
4
 74
0
 40
0
 40
0
 40
0
 40
0
 40
1
 40
1
 40
1
 40
1
 10
180.502927
 20
88.904985
 30
0.0
 10
180.562219
 20
91.140758
 30
0.0
 10
179.631134
 20
93.089915
 30
0.0
 10
177.709675
 20
94.752463
 30
0.0
  0
SPLINE
  5
149
100
AcDbEntity
  8
0
 62
7
100
AcDbSpline
 70
8
 71
3
 72
8
 73
4
 74
0
 40
0
 40
0
 40
0
 40
0
 40
1
 40
1
 40
1
 40
1
 10
177.709675
 20
94.752463
 30
0.0
 10
175.928655
 20
96.110607
 30
0.0
 10
174.116517
 20
96.587362
 30
0.0
 10
172.273254
 20
96.182732
 30
0.0
  0
SPLINE
  5
14a
100
AcDbEntity
  8
0
 62
7
100
AcDbSpline
 70
8
 71
3
 72
8
 73
4
 74
0
 40
0
 40
0
 40
0
 40
0
 40
1
 40
1
 40
1
 40
1
 10
172.273254
 20
96.182732
 30
0.0
 10
170.429995
 20
95.778107
 30
0.0
 10
168.829894
 20
94.742216
 30
0.0
 10
167.472944
 20
93.075050
 30
0.0
  0
LWPOLYLINE
  5
14b
100
AcDbEntity
  8
0
 62
7
100
AcDbPolyline
 90
2
 70
0
 10
180.423315
 20
103.551026
 30
0.0
 10
180.423315
 20
103.551026
 30
0.0
  0
SPLINE
  5
14c
100
AcDbEntity
  8
0
 62
7
100
AcDbSpline
 70
8
 71
3
 72
8
 73
4
 74
0
 40
0
 40
0
 40
0
 40
0
 40
1
 40
1
 40
1
 40
1
 10
169.954631
 20
87.700994
 30
0.0
 10
169.579499
 20
87.986996
 30
0.0
 10
169.310846
 20
88.309471
 30
0.0
 10
169.148670
 20
88.668415
 30
0.0
  0
SPLINE
  5
14d
100
AcDbEntity
  8
0
 62
7
100
AcDbSpline
 70
8
 71
3
 72
8
 73
4
 74
0
 40
0
 40
0
 40
0
 40
0
 40
1
 40
1
 40
1
 40
1
 10
169.148670
 20
88.668415
 30
0.0
 10
168.986499
 20
89.027380
 30
0.0
 10
169.072887
 20
89.407914
 30
0.0
 10
169.407837
 20
89.810021
 30
0.0
  0
SPLINE
  5
14e
100
AcDbEntity
  8
0
 62
7
100
AcDbSpline
 70
8
 71
3
 72
8
 73
4
 74
0
 40
0
 40
0
 40
0
 40
0
 40
1
 40
1
 40
1
 40
1
 10
169.407837
 20
89.810021
 30
0.0
 10
169.873303
 20
90.260242
 30
0.0
 10
170.518562
 20
90.384789
 30
0.0
 10
171.343614
 20
90.183667
 30
0.0
  0
SPLINE
  5
14f
100
AcDbEntity
  8
0
 62
7
100
AcDbSpline
 70
8
 71
3
 72
8
 73
4
 74
0
 40
0
 40
0
 40
0
 40
0
 40
1
 40
1
 40
1
 40
1
 10
171.343614
 20
90.183667
 30
0.0
 10
172.168670
 20
89.982558
 30
0.0
 10
173.001740
 20
89.644044
 30
0.0
 10
173.842818
 20
89.168115
 30
0.0
  0
SPLINE
  5
150
100
AcDbEntity
  8
0
 62
7
100
AcDbSpline
 70
8
 71
3
 72
8
 73
4
 74
0
 40
0
 40
0
 40
0
 40
0
 40
1
 40
1
 40
1
 40
1
 10
173.842818
 20
89.168115
 30
0.0
 10
174.683900
 20
88.692207
 30
0.0
 10
175.361208
 20
88.267152
 30
0.0
 10
175.874751
 20
87.892945
 30
0.0
  0
SPLINE
  5
151
100
AcDbEntity
  8
0
 62
7
100
AcDbSpline
 70
8
 71
3
 72
8
 73
4
 74
0
 40
0
 40
0
 40
0
 40
0
 40
1
 40
1
 40
1
 40
1
 10
175.874751
 20
87.892945
 30
0.0
 10
176.224226
 20
87.643523
 30
0.0
 10
176.456326
 20
87.318809
 30
0.0
 10
176.571049
 20
86.918807
 30
0.0
  0
SPLINE
  5
152
100
AcDbEntity
  8
0
 62
7
100
AcDbSpline
 70
8
 71
3
 72
8
 73
4
 74
0
 40
0
 40
0
 40
0
 40
0
 40
1
 40
1
 40
1
 40
1
 10
176.571049
 20
86.918807
 30
0.0
 10
176.685761
 20
86.518828
 30
0.0
 10
176.603564
 20
86.130380
 30
0.0
 10
176.324455
 20
85.753458
 30
0.0
  0
SPLINE
  5
153
100
AcDbEntity
  8
0
 62
7
100
AcDbSpline
 70
8
 71
3
 72
8
 73
4
 74
0
 40
0
 40
0
 40
0
 40
0
 40
1
 40
1
 40
1
 40
1
 10
176.324455
 20
85.753458
 30
0.0
 10
175.884792
 20
85.292518
 30
0.0
 10
175.229029
 20
85.180473
 30
0.0
 10
174.357160
 20
85.417325
 30
0.0
  0
SPLINE
  5
154
100
AcDbEntity
  8
0
 62
7
100
AcDbSpline
 70
8
 71
3
 72
8
 73
4
 74
0
 40
0
 40
0
 40
0
 40
0
 40
1
 40
1
 40
1
 40
1
 10
174.357160
 20
85.417325
 30
0.0
 10
173.485291
 20
85.654203
 30
0.0
 10
172.625447
 20
86.018349
 30
0.0
 10
171.777626
 20
86.509763
 30
0.0
  0
SPLINE
  5
155
100
AcDbEntity
  8
0
 62
7
100
AcDbSpline
 70
8
 71
3
 72
8
 73
4
 74
0
 40
0
 40
0
 40
0
 40
0
 40
1
 40
1
 40
1
 40
1
 10
171.777626
 20
86.509763
 30
0.0
 10
170.929808
 20
87.001199
 30
0.0
 10
170.322144
 20
87.398277
 30
0.0
 10
169.954631
 20
87.700994
 30
0.0
  0
LWPOLYLINE
  5
156
100
AcDbEntity
  8
0
 62
7
100
AcDbPolyline
 90
2
 70
0
 10
167.472944
 20
93.075050
 30
0.0
 10
167.472944
 20
93.075050
 30
0.0
  0
SPLINE
  5
157
100
AcDbEntity
  8
0
 62
7
100
AcDbSpline
 70
8
 71
3
 72
8
 73
4
 74
0
 40
0
 40
0
 40
0
 40
0
 40
1
 40
1
 40
1
 40
1
 10
164.125961
 20
78.619992
 30
0.0
 10
163.858400
 20
78.957860
 30
0.0
 10
163.550225
 20
79.387216
 30
0.0
 10
163.201432
 20
79.908063
 30
0.0
  0
SPLINE
  5
158
100
AcDbEntity
  8
0
 62
7
100
AcDbSpline
 70
8
 71
3
 72
8
 73
4
 74
0
 40
0
 40
0
 40
0
 40
0
 40
1
 40
1
 40
1
 40
1
 10
163.201432
 20
79.908063
 30
0.0
 10
162.852636
 20
80.428921
 30
0.0
 10
162.601899
 20
80.876567
 30
0.0
 10
162.449222
 20
81.251009
 30
0.0
  0
SPLINE
  5
159
100
AcDbEntity
  8
0
 62
7
100
AcDbSpline
 70
8
 71
3
 72
8
 73
4
 74
0
 40
0
 40
0
 40
0
 40
0
 40
1
 40
1
 40
1
 40
1
 10
162.449222
 20
81.251009
 30
0.0
 10
162.331039
 20
81.728955
 30
0.0
 10
162.363367
 20
82.183979
 30
0.0
 10
162.546205
 20
82.616084
 30
0.0
  0
SPLINE
  5
15a
100
AcDbEntity
  8
0
 62
7
100
AcDbSpline
 70
8
 71
3
 72
8
 73
4
 74
0
 40
0
 40
0
 40
0
 40
0
 40
1
 40
1
 40
1
 40
1
 10
162.546205
 20
82.616084
 30
0.0
 10
162.729043
 20
83.048191
 30
0.0
 10
162.669841
 20
83.494001
 30
0.0
 10
162.368600
 20
83.953512
 30
0.0
  0
SPLINE
  5
15b
100
AcDbEntity
  8
0
 62
7
100
AcDbSpline
 70
8
 71
3
 72
8
 73
4
 74
0
 40
0
 40
0
 40
0
 40
0
 40
1
 40
1
 40
1
 40
1
 10
162.368600
 20
83.953512
 30
0.0
 10
161.943951
 20
84.429127
 30
0.0
 10
161.391185
 20
84.569030
 30
0.0
 10
160.710307
 20
84.373222
 30
0.0
  0
SPLINE
  5
15c
100
AcDbEntity
  8
0
 62
7
100
AcDbSpline
 70
8
 71
3
 72
8
 73
4
 74
0
 40
0
 40
0
 40
0
 40
0
 40
1
 40
1
 40
1
 40
1
 10
160.710307
 20
84.373222
 30
0.0
 10
160.029429
 20
84.177413
 30
0.0
 10
159.358818
 20
83.851991
 30
0.0
 10
158.698475
 20
83.396950
 30
0.0
  0
SPLINE
  5
15d
100
AcDbEntity
  8
0
 62
7
100
AcDbSpline
 70
8
 71
3
 72
8
 73
4
 74
0
 40
0
 40
0
 40
0
 40
0
 40
1
 40
1
 40
1
 40
1
 10
158.698475
 20
83.396950
 30
0.0
 10
158.038137
 20
82.941915
 30
0.0
 10
157.526445
 20
82.563359
 30
0.0
 10
157.163400
 20
82.261282
 30
0.0
  0
SPLINE
  5
15e
100
AcDbEntity
  8
0
 62
7
100
AcDbSpline
 70
8
 71
3
 72
8
 73
4
 74
0
 40
0
 40
0
 40
0
 40
0
 40
1
 40
1
 40
1
 40
1
 10
157.163400
 20
82.261282
 30
0.0
 10
155.894162
 20
81.301445
 30
0.0
 10
154.917992
 20
80.408496
 30
0.0
 10
154.234885
 20
79.582437
 30
0.0
  0
SPLINE
  5
15f
100
AcDbEntity
  8
0
 62
7
100
AcDbSpline
 70
8
 71
3
 72
8
 73
4
 74
0
 40
0
 40
0
 40
0
 40
0
 40
1
 40
1
 40
1
 40
1
 10
154.234885
 20
79.582437
 30
0.0
 10
153.551794
 20
78.756390
 30
0.0
 10
153.460360
 20
77.994387
 30
0.0
 10
153.960584
 20
77.296426
 30
0.0
  0
SPLINE
  5
160
100
AcDbEntity
  8
0
 62
7
100
AcDbSpline
 70
8
 71
3
 72
8
 73
4
 74
0
 40
0
 40
0
 40
0
 40
0
 40
1
 40
1
 40
1
 40
1
 10
153.960584
 20
77.296426
 30
0.0
 10
154.312750
 20
76.890348
 30
0.0
 10
154.674499
 20
76.733957
 30
0.0
 10
155.045833
 20
76.827249
 30
0.0
  0
SPLINE
  5
161
100
AcDbEntity
  8
0
 62
7
100
AcDbSpline
 70
8
 71
3
 72
8
 73
4
 74
0
 40
0
 40
0
 40
0
 40
0
 40
1
 40
1
 40
1
 40
1
 10
155.045833
 20
76.827249
 30
0.0
 10
155.417179
 20
76.920557
 30
0.0
 10
155.780390
 20
77.039387
 30
0.0
 10
156.135465
 20
77.183735
 30
0.0
  0
SPLINE
  5
162
100
AcDbEntity
  8
0
 62
7
100
AcDbSpline
 70
8
 71
3
 72
8
 73
4
 74
0
 40
0
 40
0
 40
0
 40
0
 40
1
 40
1
 40
1
 40
1
 10
156.135465
 20
77.183735
 30
0.0
 10
156.490549
 20
77.328100
 30
0.0
 10
156.819781
 20
77.273823
 30
0.0
 10
157.123155
 20
77.020904
 30
0.0
  0
SPLINE
  5
163
100
AcDbEntity
  8
0
 62
7
100
AcDbSpline
 70
8
 71
3
 72
8
 73
4
 74
0
 40
0
 40
0
 40
0
 40
0
 40
1
 40
1
 40
1
 40
1
 10
157.123155
 20
77.020904
 30
0.0
 10
157.516618
 20
76.636263
 30
0.0
 10
157.897604
 20
76.241790
 30
0.0
 10
158.266116
 20
75.837490
 30
0.0
  0
SPLINE
  5
164
100
AcDbEntity
  8
0
 62
7
100
AcDbSpline
 70
8
 71
3
 72
8
 73
4
 74
0
 40
0
 40
0
 40
0
 40
0
 40
1
 40
1
 40
1
 40
1
 10
158.266116
 20
75.837490
 30
0.0
 10
158.634633
 20
75.433206
 30
0.0
 10
158.952986
 20
75.061254
 30
0.0
 10
159.221167
 20
74.721631
 30
0.0
  0
SPLINE
  5
165
100
AcDbEntity
  8
0
 62
7
100
AcDbSpline
 70
8
 71
3
 72
8
 73
4
 74
0
 40
0
 40
0
 40
0
 40
0
 40
1
 40
1
 40
1
 40
1
 10
159.221167
 20
74.721631
 30
0.0
 10
159.438061
 20
74.482332
 30
0.0
 10
159.717311
 20
74.112516
 30
0.0
 10
160.058916
 20
73.612184
 30
0.0
  0
SPLINE
  5
166
100
AcDbEntity
  8
0
 62
7
100
AcDbSpline
 70
8
 71
3
 72
8
 73
4
 74
0
 40
0
 40
0
 40
0
 40
0
 40
1
 40
1
 40
1
 40
1
 10
160.058916
 20
73.612184
 30
0.0
 10
160.400523
 20
73.111878
 30
0.0
 10
160.445995
 20
72.719617
 30
0.0
 10
160.195331
 20
72.435400
 30
0.0
  0
SPLINE
  5
167
100
AcDbEntity
  8
0
 62
7
100
AcDbSpline
 70
8
 71
3
 72
8
 73
4
 74
0
 40
0
 40
0
 40
0
 40
0
 40
1
 40
1
 40
1
 40
1
 10
160.195331
 20
72.435400
 30
0.0
 10
159.891030
 20
72.281095
 30
0.0
 10
159.430452
 20
72.259654
 30
0.0
 10
158.813590
 20
72.371081
 30
0.0
  0
SPLINE
  5
168
100
AcDbEntity
  8
0
 62
7
100
AcDbSpline
 70
8
 71
3
 72
8
 73
4
 74
0
 40
0
 40
0
 40
0
 40
0
 40
1
 40
1
 40
1
 40
1
 10
158.813590
 20
72.371081
 30
0.0
 10
158.196737
 20
72.482531
 30
0.0
 10
157.519980
 20
72.290854
 30
0.0
 10
156.783312
 20
71.796048
 30
0.0
  0
SPLINE
  5
169
100
AcDbEntity
  8
0
 62
7
100
AcDbSpline
 70
8
 71
3
 72
8
 73
4
 74
0
 40
0
 40
0
 40
0
 40
0
 40
1
 40
1
 40
1
 40
1
 10
156.783312
 20
71.796048
 30
0.0
 10
156.043647
 20
71.184396
 30
0.0
 10
155.609169
 20
70.424662
 30
0.0
 10
155.479880
 20
69.516838
 30
0.0
  0
SPLINE
  5
16a
100
AcDbEntity
  8
0
 62
7
100
AcDbSpline
 70
8
 71
3
 72
8
 73
4
 74
0
 40
0
 40
0
 40
0
 40
0
 40
1
 40
1
 40
1
 40
1
 10
155.479880
 20
69.516838
 30
0.0
 10
155.350602
 20
68.609048
 30
0.0
 10
155.574427
 20
67.766019
 30
0.0
 10
156.151354
 20
66.987754
 30
0.0
  0
SPLINE
  5
16b
100
AcDbEntity
  8
0
 62
7
100
AcDbSpline
 70
8
 71
3
 72
8
 73
4
 74
0
 40
0
 40
0
 40
0
 40
0
 40
1
 40
1
 40
1
 40
1
 10
156.151354
 20
66.987754
 30
0.0
 10
156.749617
 20
66.248022
 30
0.0
 10
157.455723
 20
65.813219
 30
0.0
 10
158.269678
 20
65.683351
 30
0.0
  0
SPLINE
  5
16c
100
AcDbEntity
  8
0
 62
7
100
AcDbSpline
 70
8
 71
3
 72
8
 73
4
 74
0
 40
0
 40
0
 40
0
 40
0
 40
1
 40
1
 40
1
 40
1
 10
158.269678
 20
65.683351
 30
0.0
 10
159.083640
 20
65.553524
 30
0.0
 10
159.873038
 20
65.777024
 30
0.0
 10
160.637875
 20
66.353861
 30
0.0
  0
SPLINE
  5
16d
100
AcDbEntity
  8
0
 62
7
100
AcDbSpline
 70
8
 71
3
 72
8
 73
4
 74
0
 40
0
 40
0
 40
0
 40
0
 40
1
 40
1
 40
1
 40
1
 10
160.637875
 20
66.353861
 30
0.0
 10
161.245502
 20
66.867409
 30
0.0
 10
161.608889
 20
67.398814
 30
0.0
 10
161.728031
 20
67.948075
 30
0.0
  0
SPLINE
  5
16e
100
AcDbEntity
  8
0
 62
7
100
AcDbSpline
 70
8
 71
3
 72
8
 73
4
 74
0
 40
0
 40
0
 40
0
 40
0
 40
1
 40
1
 40
1
 40
1
 10
161.728031
 20
67.948075
 30
0.0
 10
161.847174
 20
68.497369
 30
0.0
 10
161.889948
 20
68.986506
 30
0.0
 10
161.856349
 20
69.415486
 30
0.0
  0
SPLINE
  5
16f
100
AcDbEntity
  8
0
 62
7
100
AcDbSpline
 70
8
 71
3
 72
8
 73
4
 74
0
 40
0
 40
0
 40
0
 40
0
 40
1
 40
1
 40
1
 40
1
 10
161.856349
 20
69.415486
 30
0.0
 10
161.822751
 20
69.844501
 30
0.0
 10
161.880649
 20
70.135339
 30
0.0
 10
162.030049
 20
70.288010
 30
0.0
  0
SPLINE
  5
170
100
AcDbEntity
  8
0
 62
7
100
AcDbSpline
 70
8
 71
3
 72
8
 73
4
 74
0
 40
0
 40
0
 40
0
 40
0
 40
1
 40
1
 40
1
 40
1
 10
162.030049
 20
70.288010
 30
0.0
 10
162.221644
 20
70.413458
 30
0.0
 10
162.404470
 20
70.401768
 30
0.0
 10
162.578534
 20
70.252944
 30
0.0
  0
SPLINE
  5
171
100
AcDbEntity
  8
0
 62
7
100
AcDbSpline
 70
8
 71
3
 72
8
 73
4
 74
0
 40
0
 40
0
 40
0
 40
0
 40
1
 40
1
 40
1
 40
1
 10
162.578534
 20
70.252944
 30
0.0
 10
162.752591
 20
70.104151
 30
0.0
 10
162.899113
 20
69.956103
 30
0.0
 10
163.018089
 20
69.808803
 30
0.0
  0
SPLINE
  5
172
100
AcDbEntity
  8
0
 62
7
100
AcDbSpline
 70
8
 71
3
 72
8
 73
4
 74
0
 40
0
 40
0
 40
0
 40
0
 40
1
 40
1
 40
1
 40
1
 10
163.018089
 20
69.808803
 30
0.0
 10
163.335688
 20
69.458728
 30
0.0
 10
163.602605
 20
69.252825
 30
0.0
 10
163.818844
 20
69.191094
 30
0.0
  0
SPLINE
  5
173
100
AcDbEntity
  8
0
 62
7
100
AcDbSpline
 70
8
 71
3
 72
8
 73
4
 74
0
 40
0
 40
0
 40
0
 40
0
 40
1
 40
1
 40
1
 40
1
 10
163.818844
 20
69.191094
 30
0.0
 10
164.035077
 20
69.129395
 30
0.0
 10
164.342047
 20
69.260369
 30
0.0
 10
164.739752
 20
69.584015
 30
0.0
  0
SPLINE
  5
174
100
AcDbEntity
  8
0
 62
7
100
AcDbSpline
 70
8
 71
3
 72
8
 73
4
 74
0
 40
0
 40
0
 40
0
 40
0
 40
1
 40
1
 40
1
 40
1
 10
164.739752
 20
69.584015
 30
0.0
 10
164.872859
 20
69.681091
 30
0.0
 10
165.317816
 20
70.134817
 30
0.0
 10
166.074621
 20
70.945193
 30
0.0
  0
SPLINE
  5
175
100
AcDbEntity
  8
0
 62
7
100
AcDbSpline
 70
8
 71
3
 72
8
 73
4
 74
0
 40
0
 40
0
 40
0
 40
0
 40
1
 40
1
 40
1
 40
1
 10
166.074621
 20
70.945193
 30
0.0
 10
166.831416
 20
71.755600
 30
0.0
 10
167.500500
 20
72.654571
 30
0.0
 10
168.081873
 20
73.642111
 30
0.0
  0
SPLINE
  5
176
100
AcDbEntity
  8
0
 62
7
100
AcDbSpline
 70
8
 71
3
 72
8
 73
4
 74
0
 40
0
 40
0
 40
0
 40
0
 40
1
 40
1
 40
1
 40
1
 10
168.081873
 20
73.642111
 30
0.0
 10
168.663233
 20
74.629677
 30
0.0
 10
168.757321
 20
75.437730
 30
0.0
 10
168.364131
 20
76.066270
 30
0.0
  0
SPLINE
  5
177
100
AcDbEntity
  8
0
 62
7
100
AcDbSpline
 70
8
 71
3
 72
8
 73
4
 74
0
 40
0
 40
0
 40
0
 40
0
 40
1
 40
1
 40
1
 40
1
 10
168.364131
 20
76.066270
 30
0.0
 10
168.021121
 20
76.466936
 30
0.0
 10
167.714354
 20
76.612077
 30
0.0
 10
167.443830
 20
76.501697
 30
0.0
  0
SPLINE
  5
178
100
AcDbEntity
  8
0
 62
7
100
AcDbSpline
 70
8
 71
3
 72
8
 73
4
 74
0
 40
0
 40
0
 40
0
 40
0
 40
1
 40
1
 40
1
 40
1
 10
167.443830
 20
76.501697
 30
0.0
 10
167.173295
 20
76.391334
 30
0.0
 10
166.866875
 20
76.326538
 30
0.0
 10
166.524570
 20
76.307311
 30
0.0
  0
SPLINE
  5
179
100
AcDbEntity
  8
0
 62
7
100
AcDbSpline
 70
8
 71
3
 72
8
 73
4
 74
0
 40
0
 40
0
 40
0
 40
0
 40
1
 40
1
 40
1
 40
1
 10
166.524570
 20
76.307311
 30
0.0
 10
166.182252
 20
76.288091
 30
0.0
 10
165.731924
 20
76.615548
 30
0.0
 10
165.173578
 20
77.289653
 30
0.0
  0
LWPOLYLINE
  5
17a
100
AcDbEntity
  8
0
 62
7
100
AcDbPolyline
 90
2
 70
0
 10
169.954631
 20
87.700994
 30
0.0
 10
169.954631
 20
87.700994
 30
0.0
  0
SPLINE
  5
17b
100
AcDbEntity
  8
0
 62
7
100
AcDbSpline
 70
8
 71
3
 72
8
 73
4
 74
0
 40
0
 40
0
 40
0
 40
0
 40
1
 40
1
 40
1
 40
1
 10
18.280473
 20
137.824005
 30
0.0
 10
15.391882
 20
137.437076
 30
0.0
 10
13.082125
 20
136.129094
 30
0.0
 10
11.351195
 20
133.900055
 30
0.0
  0
SPLINE
  5
17c
100
AcDbEntity
  8
0
 62
7
100
AcDbSpline
 70
8
 71
3
 72
8
 73
4
 74
0
 40
0
 40
0
 40
0
 40
0
 40
1
 40
1
 40
1
 40
1
 10
11.351195
 20
133.900055
 30
0.0
 10
9.620258
 20
131.671027
 30
0.0
 10
8.877611
 20
129.039949
 30
0.0
 10
9.123249
 20
126.006813
 30
0.0
  0
SPLINE
  5
17d
100
AcDbEntity
  8
0
 62
7
100
AcDbSpline
 70
8
 71
3
 72
8
 73
4
 74
0
 40
0
 40
0
 40
0
 40
0
 40
1
 40
1
 40
1
 40
1
 10
9.123249
 20
126.006813
 30
0.0
 10
9.366691
 20
124.365344
 30
0.0
 10
9.779962
 20
123.061246
 30
0.0
 10
10.363061
 20
122.094516
 30
0.0
  0
SPLINE
  5
17e
100
AcDbEntity
  8
0
 62
7
100
AcDbSpline
 70
8
 71
3
 72
8
 73
4
 74
0
 40
0
 40
0
 40
0
 40
0
 40
1
 40
1
 40
1
 40
1
 10
10.363061
 20
122.094516
 30
0.0
 10
10.946156
 20
121.127815
 30
0.0
 10
11.296650
 20
120.413039
 30
0.0
 10
11.414544
 20
119.950189
 30
0.0
  0
SPLINE
  5
17f
100
AcDbEntity
  8
0
 62
7
100
AcDbSpline
 70
8
 71
3
 72
8
 73
4
 74
0
 40
0
 40
0
 40
0
 40
0
 40
1
 40
1
 40
1
 40
1
 10
11.414544
 20
119.950189
 30
0.0
 10
11.573741
 20
119.232794
 30
0.0
 10
12.122003
 20
118.659708
 30
0.0
 10
13.059332
 20
118.230931
 30
0.0
  0
SPLINE
  5
180
100
AcDbEntity
  8
0
 62
7
100
AcDbSpline
 70
8
 71
3
 72
8
 73
4
 74
0
 40
0
 40
0
 40
0
 40
0
 40
1
 40
1
 40
1
 40
1
 10
13.059332
 20
118.230931
 30
0.0
 10
13.996652
 20
117.802190
 30
0.0
 10
14.816241
 20
117.612774
 30
0.0
 10
15.518101
 20
117.662685
 30
0.0
  0
SPLINE
  5
181
100
AcDbEntity
  8
0
 62
7
100
AcDbSpline
 70
8
 71
3
 72
8
 73
4
 74
0
 40
0
 40
0
 40
0
 40
0
 40
1
 40
1
 40
1
 40
1
 10
15.518101
 20
117.662685
 30
0.0
 10
15.894085
 20
117.702165
 30
0.0
 10
16.247148
 20
117.840290
 30
0.0
 10
16.577293
 20
118.077066
 30
0.0
  0
SPLINE
  5
182
100
AcDbEntity
  8
0
 62
7
100
AcDbSpline
 70
8
 71
3
 72
8
 73
4
 74
0
 40
0
 40
0
 40
0
 40
0
 40
1
 40
1
 40
1
 40
1
 10
16.577293
 20
118.077066
 30
0.0
 10
16.907420
 20
118.313879
 30
0.0
 10
17.063417
 20
118.636780
 30
0.0
 10
17.045282
 20
119.045768
 30
0.0
  0
SPLINE
  5
183
100
AcDbEntity
  8
0
 62
7
100
AcDbSpline
 70
8
 71
3
 72
8
 73
4
 74
0
 40
0
 40
0
 40
0
 40
0
 40
1
 40
1
 40
1
 40
1
 10
17.045282
 20
119.045768
 30
0.0
 10
16.925731
 20
119.402012
 30
0.0
 10
16.550692
 20
119.858741
 30
0.0
 10
15.920165
 20
120.415949
 30
0.0
  0
SPLINE
  5
184
100
AcDbEntity
  8
0
 62
7
100
AcDbSpline
 70
8
 71
3
 72
8
 73
4
 74
0
 40
0
 40
0
 40
0
 40
0
 40
1
 40
1
 40
1
 40
1
 10
15.920165
 20
120.415949
 30
0.0
 10
15.289623
 20
120.973194
 30
0.0
 10
14.842839
 20
122.103432
 30
0.0
 10
14.579814
 20
123.806671
 30
0.0
  0
SPLINE
  5
185
100
AcDbEntity
  8
0
 62
7
100
AcDbSpline
 70
8
 71
3
 72
8
 73
4
 74
0
 40
0
 40
0
 40
0
 40
0
 40
1
 40
1
 40
1
 40
1
 10
14.579814
 20
123.806671
 30
0.0
 10
14.430236
 20
125.788100
 30
0.0
 10
15.031192
 20
127.384715
 30
0.0
 10
16.382682
 20
128.596524
 30
0.0
  0
SPLINE
  5
186
100
AcDbEntity
  8
0
 62
7
100
AcDbSpline
 70
8
 71
3
 72
8
 73
4
 74
0
 40
0
 40
0
 40
0
 40
0
 40
1
 40
1
 40
1
 40
1
 10
16.382682
 20
128.596524
 30
0.0
 10
17.734156
 20
129.808350
 30
0.0
 10
19.478072
 20
130.533364
 30
0.0
 10
21.614434
 20
130.771568
 30
0.0
  0
SPLINE
  5
187
100
AcDbEntity
  8
0
 62
7
100
AcDbSpline
 70
8
 71
3
 72
8
 73
4
 74
0
 40
0
 40
0
 40
0
 40
0
 40
1
 40
1
 40
1
 40
1
 10
21.614434
 20
130.771568
 30
0.0
 10
22.437380
 20
130.866926
 30
0.0
 10
23.249849
 20
130.711046
 30
0.0
 10
24.051845
 20
130.303932
 30
0.0
  0
SPLINE
  5
188
100
AcDbEntity
  8
0
 62
7
100
AcDbSpline
 70
8
 71
3
 72
8
 73
4
 74
0
 40
0
 40
0
 40
0
 40
0
 40
1
 40
1
 40
1
 40
1
 10
24.051845
 20
130.303932
 30
0.0
 10
24.853809
 20
129.896829
 30
0.0
 10
25.337955
 20
129.159634
 30
0.0
 10
25.504286
 20
128.092340
 30
0.0
  0
SPLINE
  5
189
100
AcDbEntity
  8
0
 62
7
100
AcDbSpline
 70
8
 71
3
 72
8
 73
4
 74
0
 40
0
 40
0
 40
0
 40
0
 40
1
 40
1
 40
1
 40
1
 10
25.504286
 20
128.092340
 30
0.0
 10
25.614168
 20
126.478426
 30
0.0
 10
25.306806
 20
125.288352
 30
0.0
 10
24.582198
 20
124.522110
 30
0.0
  0
SPLINE
  5
18a
100
AcDbEntity
  8
0
 62
7
100
AcDbSpline
 70
8
 71
3
 72
8
 73
4
 74
0
 40
0
 40
0
 40
0
 40
0
 40
1
 40
1
 40
1
 40
1
 10
24.582198
 20
124.522110
 30
0.0
 10
23.857558
 20
123.755896
 30
0.0
 10
23.120478
 20
123.106596
 30
0.0
 10
22.370957
 20
122.574212
 30
0.0
  0
SPLINE
  5
18b
100
AcDbEntity
  8
0
 62
7
100
AcDbSpline
 70
8
 71
3
 72
8
 73
4
 74
0
 40
0
 40
0
 40
0
 40
0
 40
1
 40
1
 40
1
 40
1
 10
22.370957
 20
122.574212
 30
0.0
 10
21.621407
 20
122.041856
 30
0.0
 10
21.264223
 20
121.319500
 30
0.0
 10
21.299402
 20
120.407138
 30
0.0
  0
SPLINE
  5
18c
100
AcDbEntity
  8
0
 62
7
100
AcDbSpline
 70
8
 71
3
 72
8
 73
4
 74
0
 40
0
 40
0
 40
0
 40
0
 40
1
 40
1
 40
1
 40
1
 10
21.299402
 20
120.407138
 30
0.0
 10
21.410936
 20
119.576462
 30
0.0
 10
21.770472
 20
118.965533
 30
0.0
 10
22.378010
 20
118.574350
 30
0.0
  0
SPLINE
  5
18d
100
AcDbEntity
  8
0
 62
7
100
AcDbSpline
 70
8
 71
3
 72
8
 73
4
 74
0
 40
0
 40
0
 40
0
 40
0
 40
1
 40
1
 40
1
 40
1
 10
22.378010
 20
118.574350
 30
0.0
 10
22.985520
 20
118.183207
 30
0.0
 10
23.700862
 20
118.028806
 30
0.0
 10
24.524036
 20
118.111150
 30
0.0
  0
SPLINE
  5
18e
100
AcDbEntity
  8
0
 62
7
100
AcDbSpline
 70
8
 71
3
 72
8
 73
4
 74
0
 40
0
 40
0
 40
0
 40
0
 40
1
 40
1
 40
1
 40
1
 10
24.524036
 20
118.111150
 30
0.0
 10
26.086180
 20
118.316599
 30
0.0
 10
27.257249
 20
118.746446
 30
0.0
 10
28.037245
 20
119.400691
 30
0.0
  0
SPLINE
  5
18f
100
AcDbEntity
  8
0
 62
7
100
AcDbSpline
 70
8
 71
3
 72
8
 73
4
 74
0
 40
0
 40
0
 40
0
 40
0
 40
1
 40
1
 40
1
 40
1
 10
28.037245
 20
119.400691
 30
0.0
 10
28.817203
 20
120.054972
 30
0.0
 10
29.178134
 20
120.696526
 30
0.0
 10
29.120036
 20
121.325353
 30
0.0
  0
SPLINE
  5
190
100
AcDbEntity
  8
0
 62
7
100
AcDbSpline
 70
8
 71
3
 72
8
 73
4
 74
0
 40
0
 40
0
 40
0
 40
0
 40
1
 40
1
 40
1
 40
1
 10
29.120036
 20
121.325353
 30
0.0
 10
29.088103
 20
121.547248
 30
0.0
 10
29.034811
 20
121.736695
 30
0.0
 10
28.960160
 20
121.893693
 30
0.0
  0
SPLINE
  5
191
100
AcDbEntity
  8
0
 62
7
100
AcDbSpline
 70
8
 71
3
 72
8
 73
4
 74
0
 40
0
 40
0
 40
0
 40
0
 40
1
 40
1
 40
1
 40
1
 10
28.960160
 20
121.893693
 30
0.0
 10
28.885470
 20
122.050721
 30
0.0
 10
28.828441
 20
122.275246
 30
0.0
 10
28.789074
 20
122.567267
 30
0.0
  0
SPLINE
  5
192
100
AcDbEntity
  8
0
 62
7
100
AcDbSpline
 70
8
 71
3
 72
8
 73
4
 74
0
 40
0
 40
0
 40
0
 40
0
 40
1
 40
1
 40
1
 40
1
 10
28.789074
 20
122.567267
 30
0.0
 10
28.807362
 20
122.939377
 30
0.0
 10
28.970280
 20
123.585852
 30
0.0
 10
29.277829
 20
124.506703
 30
0.0
  0
SPLINE
  5
193
100
AcDbEntity
  8
0
 62
7
100
AcDbSpline
 70
8
 71
3
 72
8
 73
4
 74
0
 40
0
 40
0
 40
0
 40
0
 40
1
 40
1
 40
1
 40
1
 10
29.277829
 20
124.506703
 30
0.0
 10
29.585336
 20
125.427578
 30
0.0
 10
29.694443
 20
126.579191
 30
0.0
 10
29.605159
 20
127.961544
 30
0.0
  0
SPLINE
  5
194
100
AcDbEntity
  8
0
 62
7
100
AcDbSpline
 70
8
 71
3
 72
8
 73
4
 74
0
 40
0
 40
0
 40
0
 40
0
 40
1
 40
1
 40
1
 40
1
 10
29.605159
 20
127.961544
 30
0.0
 10
29.386468
 20
129.835090
 30
0.0
 10
28.746690
 20
131.551820
 30
0.0
 10
27.685824
 20
133.111741
 30
0.0
  0
SPLINE
  5
195
100
AcDbEntity
  8
0
 62
7
100
AcDbSpline
 70
8
 71
3
 72
8
 73
4
 74
0
 40
0
 40
0
 40
0
 40
0
 40
1
 40
1
 40
1
 40
1
 10
27.685824
 20
133.111741
 30
0.0
 10
26.624920
 20
134.671668
 30
0.0
 10
25.277145
 20
135.890411
 30
0.0
 10
23.642495
 20
136.767975
 30
0.0
  0
SPLINE
  5
196
100
AcDbEntity
  8
0
 62
7
100
AcDbSpline
 70
8
 71
3
 72
8
 73
4
 74
0
 40
0
 40
0
 40
0
 40
0
 40
1
 40
1
 40
1
 40
1
 10
23.642495
 20
136.767975
 30
0.0
 10
22.007814
 20
137.645539
 30
0.0
 10
20.220475
 20
137.997549
 30
0.0
 10
18.280473
 20
137.824005
 30
0.0
  0
LWPOLYLINE
  5
197
100
AcDbEntity
  8
0
 62
7
100
AcDbPolyline
 90
2
 70
0
 10
165.173578
 20
77.289653
 30
0.0
 10
164.125961
 20
78.619992
 30
0.0
  0
SPLINE
  5
198
100
AcDbEntity
  8
0
 62
7
100
AcDbSpline
 70
8
 71
3
 72
8
 73
4
 74
0
 40
0
 40
0
 40
0
 40
0
 40
1
 40
1
 40
1
 40
1
 10
12.822969
 20
108.219591
 30
0.0
 10
13.252980
 20
106.867747
 30
0.0
 10
13.959437
 20
105.619464
 30
0.0
 10
14.942341
 20
104.474737
 30
0.0
  0
SPLINE
  5
199
100
AcDbEntity
  8
0
 62
7
100
AcDbSpline
 70
8
 71
3
 72
8
 73
4
 74
0
 40
0
 40
0
 40
0
 40
0
 40
1
 40
1
 40
1
 40
1
 10
14.942341
 20
104.474737
 30
0.0
 10
15.925236
 20
103.330032
 30
0.0
 10
17.084619
 20
102.482118
 30
0.0
 10
18.420493
 20
101.930989
 30
0.0
  0
SPLINE
  5
19a
100
AcDbEntity
  8
0
 62
7
100
AcDbSpline
 70
8
 71
3
 72
8
 73
4
 74
0
 40
0
 40
0
 40
0
 40
0
 40
1
 40
1
 40
1
 40
1
 10
18.420493
 20
101.930989
 30
0.0
 10
19.756353
 20
101.379888
 30
0.0
 10
21.168746
 20
101.318806
 30
0.0
 10
22.657675
 20
101.747745
 30
0.0
  0
SPLINE
  5
19b
100
AcDbEntity
  8
0
 62
7
100
AcDbSpline
 70
8
 71
3
 72
8
 73
4
 74
0
 40
0
 40
0
 40
0
 40
0
 40
1
 40
1
 40
1
 40
1
 10
22.657675
 20
101.747745
 30
0.0
 10
24.407188
 20
102.311167
 30
0.0
 10
25.794042
 20
103.454114
 30
0.0
 10
26.818242
 20
105.176589
 30
0.0
  0
SPLINE
  5
19c
100
AcDbEntity
  8
0
 62
7
100
AcDbSpline
 70
8
 71
3
 72
8
 73
4
 74
0
 40
0
 40
0
 40
0
 40
0
 40
1
 40
1
 40
1
 40
1
 10
26.818242
 20
105.176589
 30
0.0
 10
27.842411
 20
106.899088
 30
0.0
 10
28.025320
 20
108.958782
 30
0.0
 10
27.366971
 20
111.355678
 30
0.0
  0
SPLINE
  5
19d
100
AcDbEntity
  8
0
 62
7
100
AcDbSpline
 70
8
 71
3
 72
8
 73
4
 74
0
 40
0
 40
0
 40
0
 40
0
 40
1
 40
1
 40
1
 40
1
 10
27.366971
 20
111.355678
 30
0.0
 10
26.631909
 20
113.657093
 30
0.0
 10
25.350987
 20
115.452964
 30
0.0
 10
23.524199
 20
116.743295
 30
0.0
  0
SPLINE
  5
19e
100
AcDbEntity
  8
0
 62
7
100
AcDbSpline
 70
8
 71
3
 72
8
 73
4
 74
0
 40
0
 40
0
 40
0
 40
0
 40
1
 40
1
 40
1
 40
1
 10
23.524199
 20
116.743295
 30
0.0
 10
21.697386
 20
118.033624
 30
0.0
 10
19.559253
 20
118.341065
 30
0.0
 10
17.109794
 20
117.665620
 30
0.0
  0
SPLINE
  5
19f
100
AcDbEntity
  8
0
 62
7
100
AcDbSpline
 70
8
 71
3
 72
8
 73
4
 74
0
 40
0
 40
0
 40
0
 40
0
 40
1
 40
1
 40
1
 40
1
 10
17.109794
 20
117.665620
 30
0.0
 10
14.991495
 20
116.938028
 30
0.0
 10
13.589064
 20
115.695316
 30
0.0
 10
12.902497
 20
113.937487
 30
0.0
  0
SPLINE
  5
1a0
100
AcDbEntity
  8
0
 62
7
100
AcDbSpline
 70
8
 71
3
 72
8
 73
4
 74
0
 40
0
 40
0
 40
0
 40
0
 40
1
 40
1
 40
1
 40
1
 10
12.902497
 20
113.937487
 30
0.0
 10
12.215926
 20
112.179663
 30
0.0
 10
12.189417
 20
110.273698
 30
0.0
 10
12.822969
 20
108.219591
 30
0.0
  0
LWPOLYLINE
  5
1a1
100
AcDbEntity
  8
0
 62
7
100
AcDbPolyline
 90
2
 70
0
 10
18.280473
 20
137.824005
 30
0.0
 10
18.280473
 20
137.824005
 30
0.0
  0
SPLINE
  5
1a2
100
AcDbEntity
  8
0
 62
7
100
AcDbSpline
 70
8
 71
3
 72
8
 73
4
 74
0
 40
0
 40
0
 40
0
 40
0
 40
1
 40
1
 40
1
 40
1
 10
18.670638
 20
107.300887
 30
0.0
 10
18.224514
 20
107.147604
 30
0.0
 10
17.807158
 20
107.103131
 30
0.0
 10
17.418567
 20
107.167472
 30
0.0
  0
SPLINE
  5
1a3
100
AcDbEntity
  8
0
 62
7
100
AcDbSpline
 70
8
 71
3
 72
8
 73
4
 74
0
 40
0
 40
0
 40
0
 40
0
 40
1
 40
1
 40
1
 40
1
 10
17.418567
 20
107.167472
 30
0.0
 10
17.029963
 20
107.231830
 30
0.0
 10
16.761385
 20
107.514911
 30
0.0
 10
16.612832
 20
108.016719
 30
0.0
  0
SPLINE
  5
1a4
100
AcDbEntity
  8
0
 62
7
100
AcDbSpline
 70
8
 71
3
 72
8
 73
4
 74
0
 40
0
 40
0
 40
0
 40
0
 40
1
 40
1
 40
1
 40
1
 10
16.612832
 20
108.016719
 30
0.0
 10
16.496703
 20
108.653799
 30
0.0
 10
16.751267
 20
109.259662
 30
0.0
 10
17.376526
 20
109.834306
 30
0.0
  0
SPLINE
  5
1a5
100
AcDbEntity
  8
0
 62
7
100
AcDbSpline
 70
8
 71
3
 72
8
 73
4
 74
0
 40
0
 40
0
 40
0
 40
0
 40
1
 40
1
 40
1
 40
1
 10
17.376526
 20
109.834306
 30
0.0
 10
18.001771
 20
110.408961
 30
0.0
 10
18.745761
 20
110.914009
 30
0.0
 10
19.608499
 20
111.349450
 30
0.0
  0
SPLINE
  5
1a6
100
AcDbEntity
  8
0
 62
7
100
AcDbSpline
 70
8
 71
3
 72
8
 73
4
 74
0
 40
0
 40
0
 40
0
 40
0
 40
1
 40
1
 40
1
 40
1
 10
19.608499
 20
111.349450
 30
0.0
 10
20.471218
 20
111.784902
 30
0.0
 10
21.200736
 20
112.112353
 30
0.0
 10
21.797053
 20
112.331809
 30
0.0
  0
SPLINE
  5
1a7
100
AcDbEntity
  8
0
 62
7
100
AcDbSpline
 70
8
 71
3
 72
8
 73
4
 74
0
 40
0
 40
0
 40
0
 40
0
 40
1
 40
1
 40
1
 40
1
 10
21.797053
 20
112.331809
 30
0.0
 10
22.198508
 20
112.484059
 30
0.0
 10
22.597437
 20
112.496881
 30
0.0
 10
22.993840
 20
112.370276
 30
0.0
  0
SPLINE
  5
1a8
100
AcDbEntity
  8
0
 62
7
100
AcDbSpline
 70
8
 71
3
 72
8
 73
4
 74
0
 40
0
 40
0
 40
0
 40
0
 40
1
 40
1
 40
1
 40
1
 10
22.993840
 20
112.370276
 30
0.0
 10
23.390218
 20
112.243679
 30
0.0
 10
23.667706
 20
111.959690
 30
0.0
 10
23.826303
 20
111.518309
 30
0.0
  0
SPLINE
  5
1a9
100
AcDbEntity
  8
0
 62
7
100
AcDbSpline
 70
8
 71
3
 72
8
 73
4
 74
0
 40
0
 40
0
 40
0
 40
0
 40
1
 40
1
 40
1
 40
1
 10
23.826303
 20
111.518309
 30
0.0
 10
23.965672
 20
110.896743
 30
0.0
 10
23.694875
 20
110.289085
 30
0.0
 10
23.013914
 20
109.695328
 30
0.0
  0
SPLINE
  5
1aa
100
AcDbEntity
  8
0
 62
7
100
AcDbSpline
 70
8
 71
3
 72
8
 73
4
 74
0
 40
0
 40
0
 40
0
 40
0
 40
1
 40
1
 40
1
 40
1
 10
23.013914
 20
109.695328
 30
0.0
 10
22.332928
 20
109.101589
 30
0.0
 10
21.552757
 20
108.588495
 30
0.0
 10
20.673398
 20
108.156043
 30
0.0
  0
SPLINE
  5
1ab
100
AcDbEntity
  8
0
 62
7
100
AcDbSpline
 70
8
 71
3
 72
8
 73
4
 74
0
 40
0
 40
0
 40
0
 40
0
 40
1
 40
1
 40
1
 40
1
 10
20.673398
 20
108.156043
 30
0.0
 10
19.794019
 20
107.723608
 30
0.0
 10
19.126433
 20
107.438555
 30
0.0
 10
18.670638
 20
107.300887
 30
0.0
  0
LWPOLYLINE
  5
1ac
100
AcDbEntity
  8
0
 62
7
100
AcDbPolyline
 90
2
 70
0
 10
12.822969
 20
108.219591
 30
0.0
 10
12.822969
 20
108.219591
 30
0.0
  0
SPLINE
  5
1ad
100
AcDbEntity
  8
0
 62
7
100
AcDbSpline
 70
8
 71
3
 72
8
 73
4
 74
0
 40
0
 40
0
 40
0
 40
0
 40
1
 40
1
 40
1
 40
1
 10
31.708118
 20
97.894525
 30
0.0
 10
32.025150
 20
98.051091
 30
0.0
 10
32.237652
 20
98.219343
 30
0.0
 10
32.345619
 20
98.399280
 30
0.0
  0
SPLINE
  5
1ae
100
AcDbEntity
  8
0
 62
7
100
AcDbSpline
 70
8
 71
3
 72
8
 73
4
 74
0
 40
0
 40
0
 40
0
 40
0
 40
1
 40
1
 40
1
 40
1
 10
32.345619
 20
98.399280
 30
0.0
 10
32.453555
 20
98.579219
 30
0.0
 10
32.416970
 20
98.837452
 30
0.0
 10
32.235865
 20
99.173977
 30
0.0
  0
SPLINE
  5
1af
100
AcDbEntity
  8
0
 62
7
100
AcDbSpline
 70
8
 71
3
 72
8
 73
4
 74
0
 40
0
 40
0
 40
0
 40
0
 40
1
 40
1
 40
1
 40
1
 10
32.235865
 20
99.173977
 30
0.0
 10
32.167903
 20
99.321020
 30
0.0
 10
31.824563
 20
99.894293
 30
0.0
 10
31.205845
 20
100.893799
 30
0.0
  0
SPLINE
  5
1b0
100
AcDbEntity
  8
0
 62
7
100
AcDbSpline
 70
8
 71
3
 72
8
 73
4
 74
0
 40
0
 40
0
 40
0
 40
0
 40
1
 40
1
 40
1
 40
1
 10
31.205845
 20
100.893799
 30
0.0
 10
30.587098
 20
101.893304
 30
0.0
 10
29.886041
 20
102.834080
 30
0.0
 10
29.102671
 20
103.716135
 30
0.0
  0
SPLINE
  5
1b1
100
AcDbEntity
  8
0
 62
7
100
AcDbSpline
 70
8
 71
3
 72
8
 73
4
 74
0
 40
0
 40
0
 40
0
 40
0
 40
1
 40
1
 40
1
 40
1
 10
29.102671
 20
103.716135
 30
0.0
 10
28.319276
 20
104.598181
 30
0.0
 10
27.646635
 20
104.936543
 30
0.0
 10
27.084751
 20
104.731223
 30
0.0
  0
SPLINE
  5
1b2
100
AcDbEntity
  8
0
 62
7
100
AcDbSpline
 70
8
 71
3
 72
8
 73
4
 74
0
 40
0
 40
0
 40
0
 40
0
 40
1
 40
1
 40
1
 40
1
 10
27.084751
 20
104.731223
 30
0.0
 10
26.604001
 20
104.444200
 30
0.0
 10
26.396441
 20
104.140806
 30
0.0
 10
26.462070
 20
103.821042
 30
0.0
  0
SPLINE
  5
1b3
100
AcDbEntity
  8
0
 62
7
100
AcDbSpline
 70
8
 71
3
 72
8
 73
4
 74
0
 40
0
 40
0
 40
0
 40
0
 40
1
 40
1
 40
1
 40
1
 10
26.462070
 20
103.821042
 30
0.0
 10
26.527678
 20
103.501270
 30
0.0
 10
26.473282
 20
103.116669
 30
0.0
 10
26.298883
 20
102.667242
 30
0.0
  0
SPLINE
  5
1b4
100
AcDbEntity
  8
0
 62
7
100
AcDbSpline
 70
8
 71
3
 72
8
 73
4
 74
0
 40
0
 40
0
 40
0
 40
0
 40
1
 40
1
 40
1
 40
1
 10
26.298883
 20
102.667242
 30
0.0
 10
26.124463
 20
102.217808
 30
0.0
 10
25.436846
 20
101.655091
 30
0.0
 10
24.236030
 20
100.979087
 30
0.0
  0
SPLINE
  5
1b5
100
AcDbEntity
  8
0
 62
7
100
AcDbSpline
 70
8
 71
3
 72
8
 73
4
 74
0
 40
0
 40
0
 40
0
 40
0
 40
1
 40
1
 40
1
 40
1
 10
24.236030
 20
100.979087
 30
0.0
 10
22.953124
 20
100.330027
 30
0.0
 10
21.770497
 20
99.660288
 30
0.0
 10
20.688147
 20
98.969871
 30
0.0
  0
SPLINE
  5
1b6
100
AcDbEntity
  8
0
 62
7
100
AcDbSpline
 70
8
 71
3
 72
8
 73
4
 74
0
 40
0
 40
0
 40
0
 40
0
 40
1
 40
1
 40
1
 40
1
 10
20.688147
 20
98.969871
 30
0.0
 10
19.605788
 20
98.279457
 30
0.0
 10
18.871938
 20
97.438717
 30
0.0
 10
18.486598
 20
96.447654
 30
0.0
  0
SPLINE
  5
1b7
100
AcDbEntity
  8
0
 62
7
100
AcDbSpline
 70
8
 71
3
 72
8
 73
4
 74
0
 40
0
 40
0
 40
0
 40
0
 40
1
 40
1
 40
1
 40
1
 10
18.486598
 20
96.447654
 30
0.0
 10
18.101252
 20
95.456596
 30
0.0
 10
18.312650
 20
94.185569
 30
0.0
 10
19.120791
 20
92.634572
 30
0.0
  0
SPLINE
  5
1b8
100
AcDbEntity
  8
0
 62
7
100
AcDbSpline
 70
8
 71
3
 72
8
 73
4
 74
0
 40
0
 40
0
 40
0
 40
0
 40
1
 40
1
 40
1
 40
1
 10
19.120791
 20
92.634572
 30
0.0
 10
19.422523
 20
92.094568
 30
0.0
 10
19.757208
 20
91.660566
 30
0.0
 10
20.124845
 20
91.332565
 30
0.0
  0
SPLINE
  5
1b9
100
AcDbEntity
  8
0
 62
7
100
AcDbSpline
 70
8
 71
3
 72
8
 73
4
 74
0
 40
0
 40
0
 40
0
 40
0
 40
1
 40
1
 40
1
 40
1
 10
20.124845
 20
91.332565
 30
0.0
 10
20.492474
 20
91.004580
 30
0.0
 10
20.853206
 20
90.745032
 30
0.0
 10
21.207042
 20
90.553917
 30
0.0
  0
SPLINE
  5
1ba
100
AcDbEntity
  8
0
 62
7
100
AcDbSpline
 70
8
 71
3
 72
8
 73
4
 74
0
 40
0
 40
0
 40
0
 40
0
 40
1
 40
1
 40
1
 40
1
 10
21.207042
 20
90.553917
 30
0.0
 10
21.561147
 20
90.362305
 30
0.0
 10
21.867667
 20
90.203112
 30
0.0
 10
22.126602
 20
90.076340
 30
0.0
  0
SPLINE
  5
1bb
100
AcDbEntity
  8
0
 62
7
100
AcDbSpline
 70
8
 71
3
 72
8
 73
4
 74
0
 40
0
 40
0
 40
0
 40
0
 40
1
 40
1
 40
1
 40
1
 10
22.126602
 20
90.076340
 30
0.0
 10
22.385525
 20
89.949589
 30
0.0
 10
22.555337
 20
89.820794
 30
0.0
 10
22.636038
 20
89.689961
 30
0.0
  0
SPLINE
  5
1bc
100
AcDbEntity
  8
0
 62
7
100
AcDbSpline
 70
8
 71
3
 72
8
 73
4
 74
0
 40
0
 40
0
 40
0
 40
0
 40
1
 40
1
 40
1
 40
1
 10
22.636038
 20
89.689961
 30
0.0
 10
22.778351
 20
89.382528
 30
0.0
 10
22.729086
 20
89.165835
 30
0.0
 10
22.488245
 20
89.039876
 30
0.0
  0
SPLINE
  5
1bd
100
AcDbEntity
  8
0
 62
7
100
AcDbSpline
 70
8
 71
3
 72
8
 73
4
 74
0
 40
0
 40
0
 40
0
 40
0
 40
1
 40
1
 40
1
 40
1
 10
22.488245
 20
89.039876
 30
0.0
 10
22.247392
 20
88.913940
 30
0.0
 10
22.034116
 20
88.736956
 30
0.0
 10
21.848418
 20
88.508918
 30
0.0
  0
SPLINE
  5
1be
100
AcDbEntity
  8
0
 62
7
100
AcDbSpline
 70
8
 71
3
 72
8
 73
4
 74
0
 40
0
 40
0
 40
0
 40
0
 40
1
 40
1
 40
1
 40
1
 10
21.848418
 20
88.508918
 30
0.0
 10
21.662709
 20
88.280899
 30
0.0
 10
21.723732
 20
87.860043
 30
0.0
 10
22.031487
 20
87.246346
 30
0.0
  0
SPLINE
  5
1bf
100
AcDbEntity
  8
0
 62
7
100
AcDbSpline
 70
8
 71
3
 72
8
 73
4
 74
0
 40
0
 40
0
 40
0
 40
0
 40
1
 40
1
 40
1
 40
1
 10
22.031487
 20
87.246346
 30
0.0
 10
22.297551
 20
86.742819
 30
0.0
 10
22.737390
 20
86.075945
 30
0.0
 10
23.351006
 20
85.245720
 30
0.0
  0
SPLINE
  5
1c0
100
AcDbEntity
  8
0
 62
7
100
AcDbSpline
 70
8
 71
3
 72
8
 73
4
 74
0
 40
0
 40
0
 40
0
 40
0
 40
1
 40
1
 40
1
 40
1
 10
23.351006
 20
85.245720
 30
0.0
 10
23.964608
 20
84.415527
 30
0.0
 10
24.631036
 20
83.711859
 30
0.0
 10
25.350292
 20
83.134723
 30
0.0
  0
SPLINE
  5
1c1
100
AcDbEntity
  8
0
 62
7
100
AcDbSpline
 70
8
 71
3
 72
8
 73
4
 74
0
 40
0
 40
0
 40
0
 40
0
 40
1
 40
1
 40
1
 40
1
 10
25.350292
 20
83.134723
 30
0.0
 10
26.069530
 20
82.557616
 30
0.0
 10
26.720645
 20
82.396916
 30
0.0
 10
27.303639
 20
82.652623
 30
0.0
  0
SPLINE
  5
1c2
100
AcDbEntity
  8
0
 62
7
100
AcDbSpline
 70
8
 71
3
 72
8
 73
4
 74
0
 40
0
 40
0
 40
0
 40
0
 40
1
 40
1
 40
1
 40
1
 10
27.303639
 20
82.652623
 30
0.0
 10
27.666672
 20
82.870532
 30
0.0
 10
27.840799
 20
83.117056
 30
0.0
 10
27.826023
 20
83.392198
 30
0.0
  0
SPLINE
  5
1c3
100
AcDbEntity
  8
0
 62
7
100
AcDbSpline
 70
8
 71
3
 72
8
 73
4
 74
0
 40
0
 40
0
 40
0
 40
0
 40
1
 40
1
 40
1
 40
1
 10
27.826023
 20
83.392198
 30
0.0
 10
27.811224
 20
83.667367
 30
0.0
 10
27.812990
 20
83.951463
 30
0.0
 10
27.831321
 20
84.244489
 30
0.0
  0
SPLINE
  5
1c4
100
AcDbEntity
  8
0
 62
7
100
AcDbSpline
 70
8
 71
3
 72
8
 73
4
 74
0
 40
0
 40
0
 40
0
 40
0
 40
1
 40
1
 40
1
 40
1
 10
27.831321
 20
84.244489
 30
0.0
 10
27.849628
 20
84.537543
 30
0.0
 10
28.089971
 20
84.819836
 30
0.0
 10
28.552349
 20
85.091370
 30
0.0
  0
LWPOLYLINE
  5
1c5
100
AcDbEntity
  8
0
 62
7
100
AcDbPolyline
 90
2
 70
0
 10
18.670638
 20
107.300887
 30
0.0
 10
18.670638
 20
107.300887
 30
0.0
  0
SPLINE
  5
1c6
100
AcDbEntity
  8
0
 62
7
100
AcDbSpline
 70
8
 71
3
 72
8
 73
4
 74
0
 40
0
 40
0
 40
0
 40
0
 40
1
 40
1
 40
1
 40
1
 10
33.543285
 20
87.787450
 30
0.0
 10
33.940640
 20
87.999447
 30
0.0
 10
34.338260
 20
88.203547
 30
0.0
 10
34.736151
 20
88.399754
 30
0.0
  0
SPLINE
  5
1c7
100
AcDbEntity
  8
0
 62
7
100
AcDbSpline
 70
8
 71
3
 72
8
 73
4
 74
0
 40
0
 40
0
 40
0
 40
0
 40
1
 40
1
 40
1
 40
1
 10
34.736151
 20
88.399754
 30
0.0
 10
35.134002
 20
88.595983
 30
0.0
 10
35.531623
 20
88.800083
 30
0.0
 10
35.929014
 20
89.012058
 30
0.0
  0
SPLINE
  5
1c8
100
AcDbEntity
  8
0
 62
7
100
AcDbSpline
 70
8
 71
3
 72
8
 73
4
 74
0
 40
0
 40
0
 40
0
 40
0
 40
1
 40
1
 40
1
 40
1
 10
35.929014
 20
89.012058
 30
0.0
 10
36.368826
 20
89.245653
 30
0.0
 10
36.655558
 20
89.528849
 30
0.0
 10
36.789210
 20
89.861648
 30
0.0
  0
SPLINE
  5
1c9
100
AcDbEntity
  8
0
 62
7
100
AcDbSpline
 70
8
 71
3
 72
8
 73
4
 74
0
 40
0
 40
0
 40
0
 40
0
 40
1
 40
1
 40
1
 40
1
 10
36.789210
 20
89.861648
 30
0.0
 10
36.922820
 20
90.194464
 30
0.0
 10
36.871566
 20
90.583770
 30
0.0
 10
36.635442
 20
91.029563
 30
0.0
  0
SPLINE
  5
1ca
100
AcDbEntity
  8
0
 62
7
100
AcDbSpline
 70
8
 71
3
 72
8
 73
4
 74
0
 40
0
 40
0
 40
0
 40
0
 40
1
 40
1
 40
1
 40
1
 10
36.635442
 20
91.029563
 30
0.0
 10
36.441357
 20
91.403112
 30
0.0
 10
36.049258
 20
92.034392
 30
0.0
 10
35.459139
 20
92.923409
 30
0.0
  0
SPLINE
  5
1cb
100
AcDbEntity
  8
0
 62
7
100
AcDbSpline
 70
8
 71
3
 72
8
 73
4
 74
0
 40
0
 40
0
 40
0
 40
0
 40
1
 40
1
 40
1
 40
1
 10
35.459139
 20
92.923409
 30
0.0
 10
34.868985
 20
93.812440
 30
0.0
 10
34.225775
 20
94.605076
 30
0.0
 10
33.529510
 20
95.301323
 30
0.0
  0
SPLINE
  5
1cc
100
AcDbEntity
  8
0
 62
7
100
AcDbSpline
 70
8
 71
3
 72
8
 73
4
 74
0
 40
0
 40
0
 40
0
 40
0
 40
1
 40
1
 40
1
 40
1
 10
33.529510
 20
95.301323
 30
0.0
 10
32.833211
 20
95.997580
 30
0.0
 10
32.228824
 20
96.243316
 30
0.0
 10
31.716348
 20
96.038539
 30
0.0
  0
SPLINE
  5
1cd
100
AcDbEntity
  8
0
 62
7
100
AcDbSpline
 70
8
 71
3
 72
8
 73
4
 74
0
 40
0
 40
0
 40
0
 40
0
 40
1
 40
1
 40
1
 40
1
 10
31.716348
 20
96.038539
 30
0.0
 10
31.285220
 20
95.745516
 30
0.0
 10
31.113682
 20
95.380205
 30
0.0
 10
31.201733
 20
94.942602
 30
0.0
  0
SPLINE
  5
1ce
100
AcDbEntity
  8
0
 62
7
100
AcDbSpline
 70
8
 71
3
 72
8
 73
4
 74
0
 40
0
 40
0
 40
0
 40
0
 40
1
 40
1
 40
1
 40
1
 10
31.201733
 20
94.942602
 30
0.0
 10
31.289755
 20
94.505008
 30
0.0
 10
31.095383
 20
94.063206
 30
0.0
 10
30.618616
 20
93.617199
 30
0.0
  0
SPLINE
  5
1cf
100
AcDbEntity
  8
0
 62
7
100
AcDbSpline
 70
8
 71
3
 72
8
 73
4
 74
0
 40
0
 40
0
 40
0
 40
0
 40
1
 40
1
 40
1
 40
1
 10
30.618616
 20
93.617199
 30
0.0
 10
30.242027
 20
93.338268
 30
0.0
 10
29.815508
 20
93.066431
 30
0.0
 10
29.339055
 20
92.801690
 30
0.0
  0
SPLINE
  5
1d0
100
AcDbEntity
  8
0
 62
7
100
AcDbSpline
 70
8
 71
3
 72
8
 73
4
 74
0
 40
0
 40
0
 40
0
 40
0
 40
1
 40
1
 40
1
 40
1
 10
29.339055
 20
92.801690
 30
0.0
 10
28.862576
 20
92.536960
 30
0.0
 10
28.413083
 20
92.292809
 30
0.0
 10
27.990573
 20
92.069236
 30
0.0
  0
SPLINE
  5
1d1
100
AcDbEntity
  8
0
 62
7
100
AcDbSpline
 70
8
 71
3
 72
8
 73
4
 74
0
 40
0
 40
0
 40
0
 40
0
 40
1
 40
1
 40
1
 40
1
 10
27.990573
 20
92.069236
 30
0.0
 10
27.347915
 20
91.660609
 30
0.0
 10
26.593392
 20
91.295786
 30
0.0
 10
25.727002
 20
90.974769
 30
0.0
  0
SPLINE
  5
1d2
100
AcDbEntity
  8
0
 62
7
100
AcDbSpline
 70
8
 71
3
 72
8
 73
4
 74
0
 40
0
 40
0
 40
0
 40
0
 40
1
 40
1
 40
1
 40
1
 10
25.727002
 20
90.974769
 30
0.0
 10
24.860592
 20
90.653770
 30
0.0
 10
24.162595
 20
90.896856
 30
0.0
 10
23.633009
 20
91.704034
 30
0.0
  0
SPLINE
  5
1d3
100
AcDbEntity
  8
0
 62
7
100
AcDbSpline
 70
8
 71
3
 72
8
 73
4
 74
0
 40
0
 40
0
 40
0
 40
0
 40
1
 40
1
 40
1
 40
1
 10
23.633009
 20
91.704034
 30
0.0
 10
23.327709
 20
92.373107
 30
0.0
 10
23.407708
 20
92.937563
 30
0.0
 10
23.873008
 20
93.397402
 30
0.0
  0
SPLINE
  5
1d4
100
AcDbEntity
  8
0
 62
7
100
AcDbSpline
 70
8
 71
3
 72
8
 73
4
 74
0
 40
0
 40
0
 40
0
 40
0
 40
1
 40
1
 40
1
 40
1
 10
23.873008
 20
93.397402
 30
0.0
 10
24.338292
 20
93.857254
 30
0.0
 10
24.847677
 20
94.220630
 30
0.0
 10
25.401164
 20
94.487536
 30
0.0
  0
LWPOLYLINE
  5
1d5
100
AcDbEntity
  8
0
 62
7
100
AcDbPolyline
 90
2
 70
0
 10
28.552349
 20
85.091370
 30
0.0
 10
33.543285
 20
87.787450
 30
0.0
  0
SPLINE
  5
1d6
100
AcDbEntity
  8
0
 62
7
100
AcDbSpline
 70
8
 71
3
 72
8
 73
4
 74
0
 40
0
 40
0
 40
0
 40
0
 40
1
 40
1
 40
1
 40
1
 10
36.288983
 20
79.275086
 30
0.0
 10
36.789642
 20
79.751503
 30
0.0
 10
37.353172
 20
80.160917
 30
0.0
 10
37.979573
 20
80.503329
 30
0.0
  0
SPLINE
  5
1d7
100
AcDbEntity
  8
0
 62
7
100
AcDbSpline
 70
8
 71
3
 72
8
 73
4
 74
0
 40
0
 40
0
 40
0
 40
0
 40
1
 40
1
 40
1
 40
1
 10
37.979573
 20
80.503329
 30
0.0
 10
38.605951
 20
80.845740
 30
0.0
 10
39.215277
 20
80.705061
 30
0.0
 10
39.807555
 20
80.081291
 30
0.0
  0
SPLINE
  5
1d8
100
AcDbEntity
  8
0
 62
7
100
AcDbSpline
 70
8
 71
3
 72
8
 73
4
 74
0
 40
0
 40
0
 40
0
 40
0
 40
1
 40
1
 40
1
 40
1
 10
39.807555
 20
80.081291
 30
0.0
 10
40.324936
 20
79.394192
 30
0.0
 10
40.360476
 20
78.704334
 30
0.0
 10
39.914175
 20
78.011713
 30
0.0
  0
SPLINE
  5
1d9
100
AcDbEntity
  8
0
 62
7
100
AcDbSpline
 70
8
 71
3
 72
8
 73
4
 74
0
 40
0
 40
0
 40
0
 40
0
 40
1
 40
1
 40
1
 40
1
 10
39.914175
 20
78.011713
 30
0.0
 10
39.467844
 20
77.319100
 30
0.0
 10
38.836586
 20
76.674250
 30
0.0
 10
38.020399
 20
76.077161
 30
0.0
  0
SPLINE
  5
1da
100
AcDbEntity
  8
0
 62
7
100
AcDbSpline
 70
8
 71
3
 72
8
 73
4
 74
0
 40
0
 40
0
 40
0
 40
0
 40
1
 40
1
 40
1
 40
1
 10
38.020399
 20
76.077161
 30
0.0
 10
37.204187
 20
75.480083
 30
0.0
 10
36.499958
 20
74.981292
 30
0.0
 10
35.907709
 20
74.580788
 30
0.0
  0
SPLINE
  5
1db
100
AcDbEntity
  8
0
 62
7
100
AcDbSpline
 70
8
 71
3
 72
8
 73
4
 74
0
 40
0
 40
0
 40
0
 40
0
 40
1
 40
1
 40
1
 40
1
 10
35.907709
 20
74.580788
 30
0.0
 10
35.196450
 20
74.125369
 30
0.0
 10
34.688803
 20
73.957215
 30
0.0
 10
34.384770
 20
74.076330
 30
0.0
  0
SPLINE
  5
1dc
100
AcDbEntity
  8
0
 62
7
100
AcDbSpline
 70
8
 71
3
 72
8
 73
4
 74
0
 40
0
 40
0
 40
0
 40
0
 40
1
 40
1
 40
1
 40
1
 10
34.384770
 20
74.076330
 30
0.0
 10
34.080721
 20
74.195459
 30
0.0
 10
33.752722
 20
74.131397
 30
0.0
 10
33.400777
 20
73.884145
 30
0.0
  0
SPLINE
  5
1dd
100
AcDbEntity
  8
0
 62
7
100
AcDbSpline
 70
8
 71
3
 72
8
 73
4
 74
0
 40
0
 40
0
 40
0
 40
0
 40
1
 40
1
 40
1
 40
1
 10
33.400777
 20
73.884145
 30
0.0
 10
32.880165
 20
73.329796
 30
0.0
 10
32.850215
 20
72.661276
 30
0.0
 10
33.310929
 20
71.878581
 30
0.0
  0
SPLINE
  5
1de
100
AcDbEntity
  8
0
 62
7
100
AcDbSpline
 70
8
 71
3
 72
8
 73
4
 74
0
 40
0
 40
0
 40
0
 40
0
 40
1
 40
1
 40
1
 40
1
 10
33.310929
 20
71.878581
 30
0.0
 10
33.771626
 20
71.095905
 30
0.0
 10
34.207741
 20
70.485732
 30
0.0
 10
34.619280
 20
70.048062
 30
0.0
  0
SPLINE
  5
1df
100
AcDbEntity
  8
0
 62
7
100
AcDbSpline
 70
8
 71
3
 72
8
 73
4
 74
0
 40
0
 40
0
 40
0
 40
0
 40
1
 40
1
 40
1
 40
1
 10
34.619280
 20
70.048062
 30
0.0
 10
35.739967
 20
68.724293
 30
0.0
 10
36.614975
 20
67.846291
 30
0.0
 10
37.244308
 20
67.414054
 30
0.0
  0
SPLINE
  5
1e0
100
AcDbEntity
  8
0
 62
7
100
AcDbSpline
 70
8
 71
3
 72
8
 73
4
 74
0
 40
0
 40
0
 40
0
 40
0
 40
1
 40
1
 40
1
 40
1
 10
37.244308
 20
67.414054
 30
0.0
 10
37.873618
 20
66.981845
 30
0.0
 10
38.335639
 20
66.793938
 30
0.0
 10
38.630375
 20
66.850335
 30
0.0
  0
SPLINE
  5
1e1
100
AcDbEntity
  8
0
 62
7
100
AcDbSpline
 70
8
 71
3
 72
8
 73
4
 74
0
 40
0
 40
0
 40
0
 40
0
 40
1
 40
1
 40
1
 40
1
 10
38.630375
 20
66.850335
 30
0.0
 10
38.925079
 20
66.906762
 30
0.0
 10
39.130887
 20
67.006031
 30
0.0
 10
39.247798
 20
67.148144
 30
0.0
  0
SPLINE
  5
1e2
100
AcDbEntity
  8
0
 62
7
100
AcDbSpline
 70
8
 71
3
 72
8
 73
4
 74
0
 40
0
 40
0
 40
0
 40
0
 40
1
 40
1
 40
1
 40
1
 10
39.247798
 20
67.148144
 30
0.0
 10
39.528519
 20
67.400126
 30
0.0
 10
39.669201
 20
67.650195
 30
0.0
 10
39.669847
 20
67.898350
 30
0.0
  0
SPLINE
  5
1e3
100
AcDbEntity
  8
0
 62
7
100
AcDbSpline
 70
8
 71
3
 72
8
 73
4
 74
0
 40
0
 40
0
 40
0
 40
0
 40
1
 40
1
 40
1
 40
1
 10
39.669847
 20
67.898350
 30
0.0
 10
39.670411
 20
68.146531
 30
0.0
 10
39.709389
 20
68.436901
 30
0.0
 10
39.786622
 20
68.769457
 30
0.0
  0
SPLINE
  5
1e4
100
AcDbEntity
  8
0
 62
7
100
AcDbSpline
 70
8
 71
3
 72
8
 73
4
 74
0
 40
0
 40
0
 40
0
 40
0
 40
1
 40
1
 40
1
 40
1
 10
39.786622
 20
68.769457
 30
0.0
 10
39.863827
 20
69.102036
 30
0.0
 10
40.157688
 20
69.520908
 30
0.0
 10
40.668205
 20
70.026066
 30
0.0
  0
SPLINE
  5
1e5
100
AcDbEntity
  8
0
 62
7
100
AcDbSpline
 70
8
 71
3
 72
8
 73
4
 74
0
 40
0
 40
0
 40
0
 40
0
 40
1
 40
1
 40
1
 40
1
 10
40.668205
 20
70.026066
 30
0.0
 10
41.771333
 20
71.004931
 30
0.0
 10
42.889638
 20
72.008022
 30
0.0
 10
44.023125
 20
73.035348
 30
0.0
  0
SPLINE
  5
1e6
100
AcDbEntity
  8
0
 62
7
100
AcDbSpline
 70
8
 71
3
 72
8
 73
4
 74
0
 40
0
 40
0
 40
0
 40
0
 40
1
 40
1
 40
1
 40
1
 10
44.023125
 20
73.035348
 30
0.0
 10
45.156572
 20
74.062690
 30
0.0
 10
45.909128
 20
75.174301
 30
0.0
 10
46.280792
 20
76.370190
 30
0.0
  0
SPLINE
  5
1e7
100
AcDbEntity
  8
0
 62
7
100
AcDbSpline
 70
8
 71
3
 72
8
 73
4
 74
0
 40
0
 40
0
 40
0
 40
0
 40
1
 40
1
 40
1
 40
1
 10
46.280792
 20
76.370190
 30
0.0
 10
46.652414
 20
77.566087
 30
0.0
 10
46.247070
 20
78.906298
 30
0.0
 10
45.064756
 20
80.390826
 30
0.0
  0
SPLINE
  5
1e8
100
AcDbEntity
  8
0
 62
7
100
AcDbSpline
 70
8
 71
3
 72
8
 73
4
 74
0
 40
0
 40
0
 40
0
 40
0
 40
1
 40
1
 40
1
 40
1
 10
45.064756
 20
80.390826
 30
0.0
 10
44.545597
 20
80.992174
 30
0.0
 10
44.045423
 20
81.400222
 30
0.0
 10
43.564231
 20
81.614974
 30
0.0
  0
SPLINE
  5
1e9
100
AcDbEntity
  8
0
 62
7
100
AcDbSpline
 70
8
 71
3
 72
8
 73
4
 74
0
 40
0
 40
0
 40
0
 40
0
 40
1
 40
1
 40
1
 40
1
 10
43.564231
 20
81.614974
 30
0.0
 10
43.083006
 20
81.829722
 30
0.0
 10
42.641881
 20
81.946957
 30
0.0
 10
42.240858
 20
81.966673
 30
0.0
  0
SPLINE
  5
1ea
100
AcDbEntity
  8
0
 62
7
100
AcDbSpline
 70
8
 71
3
 72
8
 73
4
 74
0
 40
0
 40
0
 40
0
 40
0
 40
1
 40
1
 40
1
 40
1
 10
42.240858
 20
81.966673
 30
0.0
 10
41.829801
 20
81.977257
 30
0.0
 10
41.476589
 20
81.976410
 30
0.0
 10
41.181220
 20
81.964133
 30
0.0
  0
SPLINE
  5
1eb
100
AcDbEntity
  8
0
 62
7
100
AcDbSpline
 70
8
 71
3
 72
8
 73
4
 74
0
 40
0
 40
0
 40
0
 40
0
 40
1
 40
1
 40
1
 40
1
 10
41.181220
 20
81.964133
 30
0.0
 10
40.885821
 20
81.951829
 30
0.0
 10
40.664415
 20
82.024292
 30
0.0
 10
40.517002
 20
82.181535
 30
0.0
  0
SPLINE
  5
1ec
100
AcDbEntity
  8
0
 62
7
100
AcDbSpline
 70
8
 71
3
 72
8
 73
4
 74
0
 40
0
 40
0
 40
0
 40
0
 40
1
 40
1
 40
1
 40
1
 10
40.517002
 20
82.181535
 30
0.0
 10
40.390403
 20
82.347758
 30
0.0
 10
40.357544
 20
82.511831
 30
0.0
 10
40.418425
 20
82.673756
 30
0.0
  0
SPLINE
  5
1ed
100
AcDbEntity
  8
0
 62
7
100
AcDbSpline
 70
8
 71
3
 72
8
 73
4
 74
0
 40
0
 40
0
 40
0
 40
0
 40
1
 40
1
 40
1
 40
1
 10
40.418425
 20
82.673756
 30
0.0
 10
40.479277
 20
82.835675
 30
0.0
 10
40.579243
 20
82.972798
 30
0.0
 10
40.718322
 20
83.085126
 30
0.0
  0
SPLINE
  5
1ee
100
AcDbEntity
  8
0
 62
7
100
AcDbSpline
 70
8
 71
3
 72
8
 73
4
 74
0
 40
0
 40
0
 40
0
 40
0
 40
1
 40
1
 40
1
 40
1
 10
40.718322
 20
83.085126
 30
0.0
 10
40.784041
 20
83.138497
 30
0.0
 10
40.852036
 20
83.189164
 30
0.0
 10
40.922307
 20
83.237125
 30
0.0
  0
SPLINE
  5
1ef
100
AcDbEntity
  8
0
 62
7
100
AcDbSpline
 70
8
 71
3
 72
8
 73
4
 74
0
 40
0
 40
0
 40
0
 40
0
 40
1
 40
1
 40
1
 40
1
 10
40.922307
 20
83.237125
 30
0.0
 10
40.992549
 20
83.285080
 30
0.0
 10
41.060545
 20
83.335745
 30
0.0
 10
41.126294
 20
83.389121
 30
0.0
  0
SPLINE
  5
1f0
100
AcDbEntity
  8
0
 62
7
100
AcDbSpline
 70
8
 71
3
 72
8
 73
4
 74
0
 40
0
 40
0
 40
0
 40
0
 40
1
 40
1
 40
1
 40
1
 10
41.126294
 20
83.389121
 30
0.0
 10
41.348739
 20
83.579531
 30
0.0
 10
41.484880
 20
83.812754
 30
0.0
 10
41.534715
 20
84.088790
 30
0.0
  0
SPLINE
  5
1f1
100
AcDbEntity
  8
0
 62
7
100
AcDbSpline
 70
8
 71
3
 72
8
 73
4
 74
0
 40
0
 40
0
 40
0
 40
0
 40
1
 40
1
 40
1
 40
1
 10
41.534715
 20
84.088790
 30
0.0
 10
41.584522
 20
84.364820
 30
0.0
 10
41.512871
 20
84.626711
 30
0.0
 10
41.319721
 20
84.874465
 30
0.0
  0
SPLINE
  5
1f2
100
AcDbEntity
  8
0
 62
7
100
AcDbSpline
 70
8
 71
3
 72
8
 73
4
 74
0
 40
0
 40
0
 40
0
 40
0
 40
1
 40
1
 40
1
 40
1
 10
41.319721
 20
84.874465
 30
0.0
 10
41.143671
 20
85.072444
 30
0.0
 10
40.591424
 20
85.514571
 30
0.0
 10
39.662983
 20
86.200848
 30
0.0
  0
SPLINE
  5
1f3
100
AcDbEntity
  8
0
 62
7
100
AcDbSpline
 70
8
 71
3
 72
8
 73
4
 74
0
 40
0
 40
0
 40
0
 40
0
 40
1
 40
1
 40
1
 40
1
 10
39.662983
 20
86.200848
 30
0.0
 10
38.734512
 20
86.887116
 30
0.0
 10
37.762380
 20
87.496050
 30
0.0
 10
36.746586
 20
88.027655
 30
0.0
  0
SPLINE
  5
1f4
100
AcDbEntity
  8
0
 62
7
100
AcDbSpline
 70
8
 71
3
 72
8
 73
4
 74
0
 40
0
 40
0
 40
0
 40
0
 40
1
 40
1
 40
1
 40
1
 10
36.746586
 20
88.027655
 30
0.0
 10
35.730770
 20
88.559249
 30
0.0
 10
35.003827
 20
88.692023
 30
0.0
 10
34.565757
 20
88.425987
 30
0.0
  0
SPLINE
  5
1f5
100
AcDbEntity
  8
0
 62
7
100
AcDbSpline
 70
8
 71
3
 72
8
 73
4
 74
0
 40
0
 40
0
 40
0
 40
0
 40
1
 40
1
 40
1
 40
1
 10
34.565757
 20
88.425987
 30
0.0
 10
34.220333
 20
88.109322
 30
0.0
 10
34.071117
 20
87.791749
 30
0.0
 10
34.118110
 20
87.473269
 30
0.0
  0
SPLINE
  5
1f6
100
AcDbEntity
  8
0
 62
7
100
AcDbSpline
 70
8
 71
3
 72
8
 73
4
 74
0
 40
0
 40
0
 40
0
 40
0
 40
1
 40
1
 40
1
 40
1
 10
34.118110
 20
87.473269
 30
0.0
 10
34.165083
 20
87.154776
 30
0.0
 10
34.184785
 20
86.817588
 30
0.0
 10
34.177213
 20
86.461706
 30
0.0
  0
SPLINE
  5
1f7
100
AcDbEntity
  8
0
 62
7
100
AcDbSpline
 70
8
 71
3
 72
8
 73
4
 74
0
 40
0
 40
0
 40
0
 40
0
 40
1
 40
1
 40
1
 40
1
 10
34.177213
 20
86.461706
 30
0.0
 10
34.169621
 20
86.105812
 30
0.0
 10
33.911289
 20
85.713436
 30
0.0
 10
33.402205
 20
85.284577
 30
0.0
  0
LWPOLYLINE
  5
1f8
100
AcDbEntity
  8
0
 62
7
100
AcDbPolyline
 90
2
 70
0
 10
25.401164
 20
94.487536
 30
0.0
 10
31.708118
 20
97.894525
 30
0.0
  0
SPLINE
  5
1f9
100
AcDbEntity
  8
0
 62
7
100
AcDbSpline
 70
8
 71
3
 72
8
 73
4
 74
0
 40
0
 40
0
 40
0
 40
0
 40
1
 40
1
 40
1
 40
1
 10
30.080839
 20
82.657424
 30
0.0
 10
29.376266
 20
82.125889
 30
0.0
 10
28.861354
 20
81.867853
 30
0.0
 10
28.536110
 20
81.883319
 30
0.0
  0
SPLINE
  5
1fa
100
AcDbEntity
  8
0
 62
7
100
AcDbSpline
 70
8
 71
3
 72
8
 73
4
 74
0
 40
0
 40
0
 40
0
 40
0
 40
1
 40
1
 40
1
 40
1
 10
28.536110
 20
81.883319
 30
0.0
 10
28.210856
 20
81.898785
 30
0.0
 10
27.948789
 20
81.960893
 30
0.0
 10
27.749906
 20
82.069651
 30
0.0
  0
SPLINE
  5
1fb
100
AcDbEntity
  8
0
 62
7
100
AcDbSpline
 70
8
 71
3
 72
8
 73
4
 74
0
 40
0
 40
0
 40
0
 40
0
 40
1
 40
1
 40
1
 40
1
 10
27.749906
 20
82.069651
 30
0.0
 10
27.551018
 20
82.178405
 30
0.0
 10
27.288835
 20
82.106952
 30
0.0
 10
26.963357
 20
81.855292
 30
0.0
  0
SPLINE
  5
1fc
100
AcDbEntity
  8
0
 62
7
100
AcDbSpline
 70
8
 71
3
 72
8
 73
4
 74
0
 40
0
 40
0
 40
0
 40
0
 40
1
 40
1
 40
1
 40
1
 10
26.963357
 20
81.855292
 30
0.0
 10
26.556494
 20
81.478226
 30
0.0
 10
26.420062
 20
81.021971
 30
0.0
 10
26.554060
 20
80.486534
 30
0.0
  0
SPLINE
  5
1fd
100
AcDbEntity
  8
0
 62
7
100
AcDbSpline
 70
8
 71
3
 72
8
 73
4
 74
0
 40
0
 40
0
 40
0
 40
0
 40
1
 40
1
 40
1
 40
1
 10
26.554060
 20
80.486534
 30
0.0
 10
26.688056
 20
79.951096
 30
0.0
 10
26.934457
 20
79.427831
 30
0.0
 10
27.293264
 20
78.916735
 30
0.0
  0
SPLINE
  5
1fe
100
AcDbEntity
  8
0
 62
7
100
AcDbSpline
 70
8
 71
3
 72
8
 73
4
 74
0
 40
0
 40
0
 40
0
 40
0
 40
1
 40
1
 40
1
 40
1
 10
27.293264
 20
78.916735
 30
0.0
 10
27.652067
 20
78.405647
 30
0.0
 10
27.965251
 20
77.998087
 30
0.0
 10
28.232817
 20
77.694058
 30
0.0
  0
SPLINE
  5
1ff
100
AcDbEntity
  8
0
 62
7
100
AcDbSpline
 70
8
 71
3
 72
8
 73
4
 74
0
 40
0
 40
0
 40
0
 40
0
 40
1
 40
1
 40
1
 40
1
 10
28.232817
 20
77.694058
 30
0.0
 10
28.496376
 20
77.360587
 30
0.0
 10
28.891151
 20
76.914043
 30
0.0
 10
29.417148
 20
76.354422
 30
0.0
  0
SPLINE
  5
200
100
AcDbEntity
  8
0
 62
7
100
AcDbSpline
 70
8
 71
3
 72
8
 73
4
 74
0
 40
0
 40
0
 40
0
 40
0
 40
1
 40
1
 40
1
 40
1
 10
29.417148
 20
76.354422
 30
0.0
 10
29.943137
 20
75.794812
 30
0.0
 10
30.502527
 20
75.346849
 30
0.0
 10
31.095321
 20
75.010533
 30
0.0
  0
SPLINE
  5
201
100
AcDbEntity
  8
0
 62
7
100
AcDbSpline
 70
8
 71
3
 72
8
 73
4
 74
0
 40
0
 40
0
 40
0
 40
0
 40
1
 40
1
 40
1
 40
1
 10
31.095321
 20
75.010533
 30
0.0
 10
31.688103
 20
74.674232
 30
0.0
 10
32.216468
 20
74.674300
 30
0.0
 10
32.680416
 20
75.010739
 30
0.0
  0
SPLINE
  5
202
100
AcDbEntity
  8
0
 62
7
100
AcDbSpline
 70
8
 71
3
 72
8
 73
4
 74
0
 40
0
 40
0
 40
0
 40
0
 40
1
 40
1
 40
1
 40
1
 10
32.680416
 20
75.010739
 30
0.0
 10
32.924578
 20
75.230128
 30
0.0
 10
33.058605
 20
75.450123
 30
0.0
 10
33.082495
 20
75.670719
 30
0.0
  0
SPLINE
  5
203
100
AcDbEntity
  8
0
 62
7
100
AcDbSpline
 70
8
 71
3
 72
8
 73
4
 74
0
 40
0
 40
0
 40
0
 40
0
 40
1
 40
1
 40
1
 40
1
 10
33.082495
 20
75.670719
 30
0.0
 10
33.106371
 20
75.891329
 30
0.0
 10
33.201249
 20
76.171232
 30
0.0
 10
33.367131
 20
76.510434
 30
0.0
  0
SPLINE
  5
204
100
AcDbEntity
  8
0
 62
7
100
AcDbSpline
 70
8
 71
3
 72
8
 73
4
 74
0
 40
0
 40
0
 40
0
 40
0
 40
1
 40
1
 40
1
 40
1
 10
33.367131
 20
76.510434
 30
0.0
 10
33.532998
 20
76.849643
 30
0.0
 10
33.951009
 20
77.306843
 30
0.0
 10
34.621165
 20
77.882029
 30
0.0
  0
LWPOLYLINE
  5
205
100
AcDbEntity
  8
0
 62
7
100
AcDbPolyline
 90
2
 70
0
 10
33.402205
 20
85.284577
 30
0.0
 10
30.080839
 20
82.657424
 30
0.0
  0
SPLINE
  5
206
100
AcDbEntity
  8
0
 62
7
100
AcDbSpline
 70
8
 71
3
 72
8
 73
4
 74
0
 40
0
 40
0
 40
0
 40
0
 40
1
 40
1
 40
1
 40
1
 10
52.224263
 20
68.089115
 30
0.0
 10
52.527392
 20
68.471975
 30
0.0
 10
52.761382
 20
68.667998
 30
0.0
 10
52.926234
 20
68.677190
 30
0.0
  0
SPLINE
  5
207
100
AcDbEntity
  8
0
 62
7
100
AcDbSpline
 70
8
 71
3
 72
8
 73
4
 74
0
 40
0
 40
0
 40
0
 40
0
 40
1
 40
1
 40
1
 40
1
 10
52.926234
 20
68.677190
 30
0.0
 10
53.091060
 20
68.686391
 30
0.0
 10
53.347803
 20
68.528882
 30
0.0
 10
53.696466
 20
68.204705
 30
0.0
  0
LWPOLYLINE
  5
208
100
AcDbEntity
  8
0
 62
7
100
AcDbPolyline
 90
2
 70
0
 10
34.621165
 20
77.882029
 30
0.0
 10
36.288983
 20
79.275086
 30
0.0
  0
SPLINE
  5
209
100
AcDbEntity
  8
0
 62
7
100
AcDbSpline
 70
8
 71
3
 72
8
 73
4
 74
0
 40
0
 40
0
 40
0
 40
0
 40
1
 40
1
 40
1
 40
1
 10
55.176976
 20
66.939754
 30
0.0
 10
55.565472
 20
66.569913
 30
0.0
 10
55.890338
 20
66.405253
 30
0.0
 10
56.151566
 20
66.445780
 30
0.0
  0
SPLINE
  5
20a
100
AcDbEntity
  8
0
 62
7
100
AcDbSpline
 70
8
 71
3
 72
8
 73
4
 74
0
 40
0
 40
0
 40
0
 40
0
 40
1
 40
1
 40
1
 40
1
 10
56.151566
 20
66.445780
 30
0.0
 10
56.412762
 20
66.486308
 30
0.0
 10
56.789664
 20
66.806150
 30
0.0
 10
57.282272
 20
67.405308
 30
0.0
  0
SPLINE
  5
20b
100
AcDbEntity
  8
0
 62
7
100
AcDbSpline
 70
8
 71
3
 72
8
 73
4
 74
0
 40
0
 40
0
 40
0
 40
0
 40
1
 40
1
 40
1
 40
1
 10
57.282272
 20
67.405308
 30
0.0
 10
57.699063
 20
67.854225
 30
0.0
 10
57.910403
 20
68.179418
 30
0.0
 10
57.916287
 20
68.380888
 30
0.0
  0
SPLINE
  5
20c
100
AcDbEntity
  8
0
 62
7
100
AcDbSpline
 70
8
 71
3
 72
8
 73
4
 74
0
 40
0
 40
0
 40
0
 40
0
 40
1
 40
1
 40
1
 40
1
 10
57.916287
 20
68.380888
 30
0.0
 10
57.922129
 20
68.582352
 30
0.0
 10
57.696574
 20
68.863234
 30
0.0
 10
57.239600
 20
69.223530
 30
0.0
  0
LWPOLYLINE
  5
20d
100
AcDbEntity
  8
0
 62
7
100
AcDbPolyline
 90
2
 70
0
 10
53.696466
 20
68.204705
 30
0.0
 10
55.176976
 20
66.939754
 30
0.0
  0
SPLINE
  5
20e
100
AcDbEntity
  8
0
 62
7
100
AcDbSpline
 70
8
 71
3
 72
8
 73
4
 74
0
 40
0
 40
0
 40
0
 40
0
 40
1
 40
1
 40
1
 40
1
 10
55.737636
 20
70.506814
 30
0.0
 10
55.462331
 20
70.735829
 30
0.0
 10
55.278014
 20
70.905685
 30
0.0
 10
55.184683
 20
71.016378
 30
0.0
  0
SPLINE
  5
20f
100
AcDbEntity
  8
0
 62
7
100
AcDbSpline
 70
8
 71
3
 72
8
 73
4
 74
0
 40
0
 40
0
 40
0
 40
0
 40
1
 40
1
 40
1
 40
1
 10
55.184683
 20
71.016378
 30
0.0
 10
55.091322
 20
71.127063
 30
0.0
 10
55.067045
 20
71.234417
 30
0.0
 10
55.111856
 20
71.338444
 30
0.0
  0
SPLINE
  5
210
100
AcDbEntity
  8
0
 62
7
100
AcDbSpline
 70
8
 71
3
 72
8
 73
4
 74
0
 40
0
 40
0
 40
0
 40
0
 40
1
 40
1
 40
1
 40
1
 10
55.111856
 20
71.338444
 30
0.0
 10
55.179474
 20
71.518064
 30
0.0
 10
55.337896
 20
71.752363
 30
0.0
 10
55.587127
 20
72.041333
 30
0.0
  0
SPLINE
  5
211
100
AcDbEntity
  8
0
 62
7
100
AcDbSpline
 70
8
 71
3
 72
8
 73
4
 74
0
 40
0
 40
0
 40
0
 40
0
 40
1
 40
1
 40
1
 40
1
 10
55.587127
 20
72.041333
 30
0.0
 10
55.836323
 20
72.330294
 30
0.0
 10
56.108648
 20
72.643592
 30
0.0
 10
56.404101
 20
72.981234
 30
0.0
  0
SPLINE
  5
212
100
AcDbEntity
  8
0
 62
7
100
AcDbSpline
 70
8
 71
3
 72
8
 73
4
 74
0
 40
0
 40
0
 40
0
 40
0
 40
1
 40
1
 40
1
 40
1
 10
56.404101
 20
72.981234
 30
0.0
 10
56.821203
 20
73.436840
 30
0.0
 10
57.012030
 20
73.747078
 30
0.0
 10
56.976583
 20
73.911947
 30
0.0
  0
SPLINE
  5
213
100
AcDbEntity
  8
0
 62
7
100
AcDbSpline
 70
8
 71
3
 72
8
 73
4
 74
0
 40
0
 40
0
 40
0
 40
0
 40
1
 40
1
 40
1
 40
1
 10
56.976583
 20
73.911947
 30
0.0
 10
56.941102
 20
74.076801
 30
0.0
 10
56.706539
 20
74.323613
 30
0.0
 10
56.272890
 20
74.652382
 30
0.0
  0
SPLINE
  5
214
100
AcDbEntity
  8
0
 62
7
100
AcDbSpline
 70
8
 71
3
 72
8
 73
4
 74
0
 40
0
 40
0
 40
0
 40
0
 40
1
 40
1
 40
1
 40
1
 10
56.272890
 20
74.652382
 30
0.0
 10
55.983248
 20
74.915298
 30
0.0
 10
55.776989
 20
75.088435
 30
0.0
 10
55.654112
 20
75.171790
 30
0.0
  0
SPLINE
  5
215
100
AcDbEntity
  8
0
 62
7
100
AcDbSpline
 70
8
 71
3
 72
8
 73
4
 74
0
 40
0
 40
0
 40
0
 40
0
 40
1
 40
1
 40
1
 40
1
 10
55.654112
 20
75.171790
 30
0.0
 10
55.531199
 20
75.255130
 30
0.0
 10
55.298326
 20
75.321085
 30
0.0
 10
54.955485
 20
75.369656
 30
0.0
  0
LWPOLYLINE
  5
216
100
AcDbEntity
  8
0
 62
7
100
AcDbPolyline
 90
2
 70
0
 10
57.239600
 20
69.223530
 30
0.0
 10
55.737636
 20
70.506814
 30
0.0
  0
SPLINE
  5
217
100
AcDbEntity
  8
0
 62
7
100
AcDbSpline
 70
8
 71
3
 72
8
 73
4
 74
0
 40
0
 40
0
 40
0
 40
0
 40
1
 40
1
 40
1
 40
1
 10
47.405138
 20
76.438279
 30
0.0
 10
47.211104
 20
76.455551
 30
0.0
 10
47.059655
 20
76.408643
 30
0.0
 10
46.950788
 20
76.297515
 30
0.0
  0
SPLINE
  5
218
100
AcDbEntity
  8
0
 62
7
100
AcDbSpline
 70
8
 71
3
 72
8
 73
4
 74
0
 40
0
 40
0
 40
0
 40
0
 40
1
 40
1
 40
1
 40
1
 10
46.950788
 20
76.297515
 30
0.0
 10
46.841904
 20
76.186370
 30
0.0
 10
46.727324
 20
76.052266
 30
0.0
 10
46.607050
 20
75.895204
 30
0.0
  0
SPLINE
  5
219
100
AcDbEntity
  8
0
 62
7
100
AcDbSpline
 70
8
 71
3
 72
8
 73
4
 74
0
 40
0
 40
0
 40
0
 40
0
 40
1
 40
1
 40
1
 40
1
 10
46.607050
 20
75.895204
 30
0.0
 10
46.395121
 20
75.657113
 30
0.0
 10
46.235343
 20
75.471922
 30
0.0
 10
46.127721
 20
75.339621
 30
0.0
  0
SPLINE
  5
21a
100
AcDbEntity
  8
0
 62
7
100
AcDbSpline
 70
8
 71
3
 72
8
 73
4
 74
0
 40
0
 40
0
 40
0
 40
0
 40
1
 40
1
 40
1
 40
1
 10
46.127721
 20
75.339621
 30
0.0
 10
46.020081
 20
75.207307
 30
0.0
 10
45.971186
 20
75.075857
 30
0.0
 10
45.981030
 20
74.945275
 30
0.0
  0
SPLINE
  5
21b
100
AcDbEntity
  8
0
 62
7
100
AcDbSpline
 70
8
 71
3
 72
8
 73
4
 74
0
 40
0
 40
0
 40
0
 40
0
 40
1
 40
1
 40
1
 40
1
 10
45.981030
 20
74.945275
 30
0.0
 10
45.989271
 20
74.850832
 30
0.0
 10
46.066617
 20
74.736800
 30
0.0
 10
46.213065
 20
74.603182
 30
0.0
  0
SPLINE
  5
21c
100
AcDbEntity
  8
0
 62
7
100
AcDbSpline
 70
8
 71
3
 72
8
 73
4
 74
0
 40
0
 40
0
 40
0
 40
0
 40
1
 40
1
 40
1
 40
1
 10
46.213065
 20
74.603182
 30
0.0
 10
46.359501
 20
74.469544
 30
0.0
 10
46.572410
 20
74.286089
 30
0.0
 10
46.851793
 20
74.052812
 30
0.0
  0
SPLINE
  5
21d
100
AcDbEntity
  8
0
 62
7
100
AcDbSpline
 70
8
 71
3
 72
8
 73
4
 74
0
 40
0
 40
0
 40
0
 40
0
 40
1
 40
1
 40
1
 40
1
 10
46.851793
 20
74.052812
 30
0.0
 10
47.098526
 20
73.847400
 30
0.0
 10
47.290090
 20
73.691461
 30
0.0
 10
47.426488
 20
73.584992
 30
0.0
  0
SPLINE
  5
21e
100
AcDbEntity
  8
0
 62
7
100
AcDbSpline
 70
8
 71
3
 72
8
 73
4
 74
0
 40
0
 40
0
 40
0
 40
0
 40
1
 40
1
 40
1
 40
1
 10
47.426488
 20
73.584992
 30
0.0
 10
47.562866
 20
73.478507
 30
0.0
 10
47.644126
 20
73.388972
 30
0.0
 10
47.670268
 20
73.316384
 30
0.0
  0
SPLINE
  5
21f
100
AcDbEntity
  8
0
 62
7
100
AcDbSpline
 70
8
 71
3
 72
8
 73
4
 74
0
 40
0
 40
0
 40
0
 40
0
 40
1
 40
1
 40
1
 40
1
 10
47.670268
 20
73.316384
 30
0.0
 10
47.696826
 20
73.243399
 30
0.0
 10
47.676957
 20
73.156765
 30
0.0
 10
47.610607
 20
73.056478
 30
0.0
  0
SPLINE
  5
220
100
AcDbEntity
  8
0
 62
7
100
AcDbSpline
 70
8
 71
3
 72
8
 73
4
 74
0
 40
0
 40
0
 40
0
 40
0
 40
1
 40
1
 40
1
 40
1
 10
47.610607
 20
73.056478
 30
0.0
 10
47.544239
 20
72.956179
 30
0.0
 10
47.428785
 20
72.812000
 30
0.0
 10
47.264238
 20
72.623933
 30
0.0
  0
LWPOLYLINE
  5
221
100
AcDbEntity
  8
0
 62
7
100
AcDbPolyline
 90
2
 70
0
 10
54.955485
 20
75.369656
 30
0.0
 10
47.405138
 20
76.438279
 30
0.0
  0
SPLINE
  5
222
100
AcDbEntity
  8
0
 62
7
100
AcDbSpline
 70
8
 71
3
 72
8
 73
4
 74
0
 40
0
 40
0
 40
0
 40
0
 40
1
 40
1
 40
1
 40
1
 10
43.487718
 20
68.203861
 30
0.0
 10
42.556249
 20
67.058691
 30
0.0
 10
42.088514
 20
66.003312
 30
0.0
 10
42.084509
 20
65.037717
 30
0.0
  0
SPLINE
  5
223
100
AcDbEntity
  8
0
 62
7
100
AcDbSpline
 70
8
 71
3
 72
8
 73
4
 74
0
 40
0
 40
0
 40
0
 40
0
 40
1
 40
1
 40
1
 40
1
 10
42.084509
 20
65.037717
 30
0.0
 10
42.080502
 20
64.072128
 30
0.0
 10
42.299218
 20
63.244127
 30
0.0
 10
42.740679
 20
62.553716
 30
0.0
  0
SPLINE
  5
224
100
AcDbEntity
  8
0
 62
7
100
AcDbSpline
 70
8
 71
3
 72
8
 73
4
 74
0
 40
0
 40
0
 40
0
 40
0
 40
1
 40
1
 40
1
 40
1
 10
42.740679
 20
62.553716
 30
0.0
 10
43.182128
 20
61.863310
 30
0.0
 10
43.605320
 20
61.358293
 30
0.0
 10
44.010255
 20
61.038668
 30
0.0
  0
SPLINE
  5
225
100
AcDbEntity
  8
0
 62
7
100
AcDbSpline
 70
8
 71
3
 72
8
 73
4
 74
0
 40
0
 40
0
 40
0
 40
0
 40
1
 40
1
 40
1
 40
1
 10
44.010255
 20
61.038668
 30
0.0
 10
45.169675
 20
60.086721
 30
0.0
 10
46.437059
 20
59.464774
 30
0.0
 10
47.812407
 20
59.172823
 30
0.0
  0
SPLINE
  5
226
100
AcDbEntity
  8
0
 62
7
100
AcDbSpline
 70
8
 71
3
 72
8
 73
4
 74
0
 40
0
 40
0
 40
0
 40
0
 40
1
 40
1
 40
1
 40
1
 10
47.812407
 20
59.172823
 30
0.0
 10
49.187735
 20
58.880884
 30
0.0
 10
50.215825
 20
59.075872
 30
0.0
 10
50.896681
 20
59.757777
 30
0.0
  0
SPLINE
  5
227
100
AcDbEntity
  8
0
 62
7
100
AcDbSpline
 70
8
 71
3
 72
8
 73
4
 74
0
 40
0
 40
0
 40
0
 40
0
 40
1
 40
1
 40
1
 40
1
 10
50.896681
 20
59.757777
 30
0.0
 10
51.072598
 20
59.970937
 30
0.0
 10
51.186453
 20
60.241768
 30
0.0
 10
51.238237
 20
60.570275
 30
0.0
  0
SPLINE
  5
228
100
AcDbEntity
  8
0
 62
7
100
AcDbSpline
 70
8
 71
3
 72
8
 73
4
 74
0
 40
0
 40
0
 40
0
 40
0
 40
1
 40
1
 40
1
 40
1
 10
51.238237
 20
60.570275
 30
0.0
 10
51.290000
 20
60.898790
 30
0.0
 10
51.214079
 20
61.164731
 30
0.0
 10
51.010456
 20
61.368095
 30
0.0
  0
SPLINE
  5
229
100
AcDbEntity
  8
0
 62
7
100
AcDbSpline
 70
8
 71
3
 72
8
 73
4
 74
0
 40
0
 40
0
 40
0
 40
0
 40
1
 40
1
 40
1
 40
1
 10
51.010456
 20
61.368095
 30
0.0
 10
50.805577
 20
61.507563
 30
0.0
 10
50.530568
 20
61.600237
 30
0.0
 10
50.185433
 20
61.646115
 30
0.0
  0
SPLINE
  5
22a
100
AcDbEntity
  8
0
 62
7
100
AcDbSpline
 70
8
 71
3
 72
8
 73
4
 74
0
 40
0
 40
0
 40
0
 40
0
 40
1
 40
1
 40
1
 40
1
 10
50.185433
 20
61.646115
 30
0.0
 10
49.840275
 20
61.691998
 30
0.0
 10
49.495535
 20
61.844254
 30
0.0
 10
49.151210
 20
62.102877
 30
0.0
  0
SPLINE
  5
22b
100
AcDbEntity
  8
0
 62
7
100
AcDbSpline
 70
8
 71
3
 72
8
 73
4
 74
0
 40
0
 40
0
 40
0
 40
0
 40
1
 40
1
 40
1
 40
1
 10
49.151210
 20
62.102877
 30
0.0
 10
48.835203
 20
62.345803
 30
0.0
 10
48.666166
 20
62.692840
 30
0.0
 10
48.644099
 20
63.143995
 30
0.0
  0
SPLINE
  5
22c
100
AcDbEntity
  8
0
 62
7
100
AcDbSpline
 70
8
 71
3
 72
8
 73
4
 74
0
 40
0
 40
0
 40
0
 40
0
 40
1
 40
1
 40
1
 40
1
 10
48.644099
 20
63.143995
 30
0.0
 10
48.622001
 20
63.595155
 30
0.0
 10
48.904878
 20
64.177848
 30
0.0
 10
49.492702
 20
64.892074
 30
0.0
  0
LWPOLYLINE
  5
22d
100
AcDbEntity
  8
0
 62
7
100
AcDbPolyline
 90
2
 70
0
 10
47.264238
 20
72.623933
 30
0.0
 10
43.487718
 20
68.203861
 30
0.0
  0
SPLINE
  5
22e
100
AcDbEntity
  8
0
 62
7
100
AcDbSpline
 70
8
 71
3
 72
8
 73
4
 74
0
 40
0
 40
0
 40
0
 40
0
 40
1
 40
1
 40
1
 40
1
 10
64.708893
 20
55.673973
 30
0.0
 10
65.165899
 20
56.049772
 30
0.0
 10
65.646503
 20
56.423609
 30
0.0
 10
66.150707
 20
56.795494
 30
0.0
  0
SPLINE
  5
22f
100
AcDbEntity
  8
0
 62
7
100
AcDbSpline
 70
8
 71
3
 72
8
 73
4
 74
0
 40
0
 40
0
 40
0
 40
0
 40
1
 40
1
 40
1
 40
1
 10
66.150707
 20
56.795494
 30
0.0
 10
66.654878
 20
57.167375
 30
0.0
 10
67.169041
 20
57.487771
 30
0.0
 10
67.693201
 20
57.756683
 30
0.0
  0
SPLINE
  5
230
100
AcDbEntity
  8
0
 62
7
100
AcDbSpline
 70
8
 71
3
 72
8
 73
4
 74
0
 40
0
 40
0
 40
0
 40
0
 40
1
 40
1
 40
1
 40
1
 10
67.693201
 20
57.756683
 30
0.0
 10
68.260166
 20
58.026807
 30
0.0
 10
68.763840
 20
58.127461
 30
0.0
 10
69.204225
 20
58.058644
 30
0.0
  0
SPLINE
  5
231
100
AcDbEntity
  8
0
 62
7
100
AcDbSpline
 70
8
 71
3
 72
8
 73
4
 74
0
 40
0
 40
0
 40
0
 40
0
 40
1
 40
1
 40
1
 40
1
 10
69.204225
 20
58.058644
 30
0.0
 10
69.644568
 20
57.989824
 30
0.0
 10
70.038047
 20
57.949523
 30
0.0
 10
70.384662
 20
57.937734
 30
0.0
  0
SPLINE
  5
232
100
AcDbEntity
  8
0
 62
7
100
AcDbSpline
 70
8
 71
3
 72
8
 73
4
 74
0
 40
0
 40
0
 40
0
 40
0
 40
1
 40
1
 40
1
 40
1
 10
70.384662
 20
57.937734
 30
0.0
 10
70.731233
 20
57.925937
 30
0.0
 10
71.047367
 20
58.140658
 30
0.0
 10
71.333061
 20
58.581876
 30
0.0
  0
SPLINE
  5
233
100
AcDbEntity
  8
0
 62
7
100
AcDbSpline
 70
8
 71
3
 72
8
 73
4
 74
0
 40
0
 40
0
 40
0
 40
0
 40
1
 40
1
 40
1
 40
1
 10
71.333061
 20
58.581876
 30
0.0
 10
71.601561
 20
59.153511
 30
0.0
 10
71.479991
 20
59.698146
 30
0.0
 10
70.968354
 20
60.215779
 30
0.0
  0
SPLINE
  5
234
100
AcDbEntity
  8
0
 62
7
100
AcDbSpline
 70
8
 71
3
 72
8
 73
4
 74
0
 40
0
 40
0
 40
0
 40
0
 40
1
 40
1
 40
1
 40
1
 10
70.968354
 20
60.215779
 30
0.0
 10
70.456673
 20
60.733405
 30
0.0
 10
69.967529
 20
61.121732
 30
0.0
 10
69.500925
 20
61.380755
 30
0.0
  0
SPLINE
  5
235
100
AcDbEntity
  8
0
 62
7
100
AcDbSpline
 70
8
 71
3
 72
8
 73
4
 74
0
 40
0
 40
0
 40
0
 40
0
 40
1
 40
1
 40
1
 40
1
 10
69.500925
 20
61.380755
 30
0.0
 10
69.003048
 20
61.711754
 30
0.0
 10
68.325055
 20
62.018123
 30
0.0
 10
67.466941
 20
62.299863
 30
0.0
  0
SPLINE
  5
236
100
AcDbEntity
  8
0
 62
7
100
AcDbSpline
 70
8
 71
3
 72
8
 73
4
 74
0
 40
0
 40
0
 40
0
 40
0
 40
1
 40
1
 40
1
 40
1
 10
67.466941
 20
62.299863
 30
0.0
 10
66.608791
 20
62.581594
 30
0.0
 10
65.953499
 20
62.436489
 30
0.0
 10
65.501068
 20
61.864546
 30
0.0
  0
SPLINE
  5
237
100
AcDbEntity
  8
0
 62
7
100
AcDbSpline
 70
8
 71
3
 72
8
 73
4
 74
0
 40
0
 40
0
 40
0
 40
0
 40
1
 40
1
 40
1
 40
1
 10
65.501068
 20
61.864546
 30
0.0
 10
65.309869
 20
61.477775
 30
0.0
 10
65.272878
 20
61.127291
 30
0.0
 10
65.390096
 20
60.813096
 30
0.0
  0
SPLINE
  5
238
100
AcDbEntity
  8
0
 62
7
100
AcDbSpline
 70
8
 71
3
 72
8
 73
4
 74
0
 40
0
 40
0
 40
0
 40
0
 40
1
 40
1
 40
1
 40
1
 10
65.390096
 20
60.813096
 30
0.0
 10
65.507280
 20
60.498893
 30
0.0
 10
65.429963
 20
60.082101
 30
0.0
 10
65.158137
 20
59.562719
 30
0.0
  0
SPLINE
  5
239
100
AcDbEntity
  8
0
 62
7
100
AcDbSpline
 70
8
 71
3
 72
8
 73
4
 74
0
 40
0
 40
0
 40
0
 40
0
 40
1
 40
1
 40
1
 40
1
 10
65.158137
 20
59.562719
 30
0.0
 10
64.941286
 20
59.219765
 30
0.0
 10
64.555452
 20
58.843340
 30
0.0
 10
64.000634
 20
58.433446
 30
0.0
  0
SPLINE
  5
23a
100
AcDbEntity
  8
0
 62
7
100
AcDbSpline
 70
8
 71
3
 72
8
 73
4
 74
0
 40
0
 40
0
 40
0
 40
0
 40
1
 40
1
 40
1
 40
1
 10
64.000634
 20
58.433446
 30
0.0
 10
63.445788
 20
58.023550
 30
0.0
 10
62.967097
 20
57.901788
 30
0.0
 10
62.564566
 20
58.068161
 30
0.0
  0
SPLINE
  5
23b
100
AcDbEntity
  8
0
 62
7
100
AcDbSpline
 70
8
 71
3
 72
8
 73
4
 74
0
 40
0
 40
0
 40
0
 40
0
 40
1
 40
1
 40
1
 40
1
 10
62.564566
 20
58.068161
 30
0.0
 10
62.355092
 20
58.265739
 30
0.0
 10
62.253018
 20
58.765486
 30
0.0
 10
62.258344
 20
59.567401
 30
0.0
  0
SPLINE
  5
23c
100
AcDbEntity
  8
0
 62
7
100
AcDbSpline
 70
8
 71
3
 72
8
 73
4
 74
0
 40
0
 40
0
 40
0
 40
0
 40
1
 40
1
 40
1
 40
1
 10
62.258344
 20
59.567401
 30
0.0
 10
62.263649
 20
60.369307
 30
0.0
 10
62.403363
 20
61.035798
 30
0.0
 10
62.677506
 20
61.566872
 30
0.0
  0
SPLINE
  5
23d
100
AcDbEntity
  8
0
 62
7
100
AcDbSpline
 70
8
 71
3
 72
8
 73
4
 74
0
 40
0
 40
0
 40
0
 40
0
 40
1
 40
1
 40
1
 40
1
 10
62.677506
 20
61.566872
 30
0.0
 10
62.865886
 20
61.824581
 30
0.0
 10
63.097023
 20
61.996431
 30
0.0
 10
63.370917
 20
62.082419
 30
0.0
  0
SPLINE
  5
23e
100
AcDbEntity
  8
0
 62
7
100
AcDbSpline
 70
8
 71
3
 72
8
 73
4
 74
0
 40
0
 40
0
 40
0
 40
0
 40
1
 40
1
 40
1
 40
1
 10
63.370917
 20
62.082419
 30
0.0
 10
63.644780
 20
62.168398
 30
0.0
 10
63.886915
 20
62.358331
 30
0.0
 10
64.097323
 20
62.652220
 30
0.0
  0
SPLINE
  5
23f
100
AcDbEntity
  8
0
 62
7
100
AcDbSpline
 70
8
 71
3
 72
8
 73
4
 74
0
 40
0
 40
0
 40
0
 40
0
 40
1
 40
1
 40
1
 40
1
 10
64.097323
 20
62.652220
 30
0.0
 10
64.428951
 20
63.358190
 30
0.0
 10
64.282664
 20
64.018328
 30
0.0
 10
63.658462
 20
64.632635
 30
0.0
  0
SPLINE
  5
240
100
AcDbEntity
  8
0
 62
7
100
AcDbSpline
 70
8
 71
3
 72
8
 73
4
 74
0
 40
0
 40
0
 40
0
 40
0
 40
1
 40
1
 40
1
 40
1
 10
63.658462
 20
64.632635
 30
0.0
 10
63.034232
 20
65.246929
 30
0.0
 10
62.449902
 20
65.702780
 30
0.0
 10
61.905473
 20
66.000188
 30
0.0
  0
SPLINE
  5
241
100
AcDbEntity
  8
0
 62
7
100
AcDbSpline
 70
8
 71
3
 72
8
 73
4
 74
0
 40
0
 40
0
 40
0
 40
0
 40
1
 40
1
 40
1
 40
1
 10
61.905473
 20
66.000188
 30
0.0
 10
60.230343
 20
67.007132
 30
0.0
 10
58.938219
 20
67.655148
 30
0.0
 10
58.029097
 20
67.944231
 30
0.0
  0
SPLINE
  5
242
100
AcDbEntity
  8
0
 62
7
100
AcDbSpline
 70
8
 71
3
 72
8
 73
4
 74
0
 40
0
 40
0
 40
0
 40
0
 40
1
 40
1
 40
1
 40
1
 10
58.029097
 20
67.944231
 30
0.0
 10
57.119960
 20
68.233297
 30
0.0
 10
56.469040
 20
68.310279
 30
0.0
 10
56.076339
 20
68.175179
 30
0.0
  0
SPLINE
  5
243
100
AcDbEntity
  8
0
 62
7
100
AcDbSpline
 70
8
 71
3
 72
8
 73
4
 74
0
 40
0
 40
0
 40
0
 40
0
 40
1
 40
1
 40
1
 40
1
 10
56.076339
 20
68.175179
 30
0.0
 10
55.683624
 20
68.040059
 30
0.0
 10
55.424344
 20
67.839704
 30
0.0
 10
55.298498
 20
67.574113
 30
0.0
  0
SPLINE
  5
244
100
AcDbEntity
  8
0
 62
7
100
AcDbSpline
 70
8
 71
3
 72
8
 73
4
 74
0
 40
0
 40
0
 40
0
 40
0
 40
1
 40
1
 40
1
 40
1
 10
55.298498
 20
67.574113
 30
0.0
 10
55.042531
 20
67.045748
 30
0.0
 10
55.098823
 20
66.579351
 30
0.0
 10
55.467377
 20
66.174918
 30
0.0
  0
SPLINE
  5
245
100
AcDbEntity
  8
0
 62
7
100
AcDbSpline
 70
8
 71
3
 72
8
 73
4
 74
0
 40
0
 40
0
 40
0
 40
0
 40
1
 40
1
 40
1
 40
1
 10
55.467377
 20
66.174918
 30
0.0
 10
55.835920
 20
65.770468
 30
0.0
 10
56.028745
 20
65.270582
 30
0.0
 10
56.045854
 20
64.675257
 30
0.0
  0
LWPOLYLINE
  5
246
100
AcDbEntity
  8
0
 62
7
100
AcDbPolyline
 90
2
 70
0
 10
49.492702
 20
64.892074
 30
0.0
 10
52.224263
 20
68.089115
 30
0.0
  0
SPLINE
  5
247
100
AcDbEntity
  8
0
 62
7
100
AcDbSpline
 70
8
 71
3
 72
8
 73
4
 74
0
 40
0
 40
0
 40
0
 40
0
 40
1
 40
1
 40
1
 40
1
 10
55.124804
 20
55.557198
 30
0.0
 10
55.093201
 20
55.147694
 30
0.0
 10
55.041052
 20
54.690821
 30
0.0
 10
54.968357
 20
54.186575
 30
0.0
  0
SPLINE
  5
248
100
AcDbEntity
  8
0
 62
7
100
AcDbSpline
 70
8
 71
3
 72
8
 73
4
 74
0
 40
0
 40
0
 40
0
 40
0
 40
1
 40
1
 40
1
 40
1
 10
54.968357
 20
54.186575
 30
0.0
 10
54.895651
 20
53.682334
 30
0.0
 10
54.760165
 20
53.251369
 30
0.0
 10
54.561901
 20
52.893681
 30
0.0
  0
SPLINE
  5
249
100
AcDbEntity
  8
0
 62
7
100
AcDbSpline
 70
8
 71
3
 72
8
 73
4
 74
0
 40
0
 40
0
 40
0
 40
0
 40
1
 40
1
 40
1
 40
1
 10
54.561901
 20
52.893681
 30
0.0
 10
54.385899
 20
52.600906
 30
0.0
 10
54.148620
 20
52.380491
 30
0.0
 10
53.850074
 20
52.232434
 30
0.0
  0
SPLINE
  5
24a
100
AcDbEntity
  8
0
 62
7
100
AcDbSpline
 70
8
 71
3
 72
8
 73
4
 74
0
 40
0
 40
0
 40
0
 40
0
 40
1
 40
1
 40
1
 40
1
 10
53.850074
 20
52.232434
 30
0.0
 10
53.551514
 20
52.084389
 30
0.0
 10
53.235801
 20
52.101610
 30
0.0
 10
52.902934
 20
52.284095
 30
0.0
  0
SPLINE
  5
24b
100
AcDbEntity
  8
0
 62
7
100
AcDbSpline
 70
8
 71
3
 72
8
 73
4
 74
0
 40
0
 40
0
 40
0
 40
0
 40
1
 40
1
 40
1
 40
1
 10
52.902934
 20
52.284095
 30
0.0
 10
52.620268
 20
52.499236
 30
0.0
 10
52.549202
 20
52.845043
 30
0.0
 10
52.689737
 20
53.321513
 30
0.0
  0
SPLINE
  5
24c
100
AcDbEntity
  8
0
 62
7
100
AcDbSpline
 70
8
 71
3
 72
8
 73
4
 74
0
 40
0
 40
0
 40
0
 40
0
 40
1
 40
1
 40
1
 40
1
 10
52.689737
 20
53.321513
 30
0.0
 10
52.830264
 20
53.797989
 30
0.0
 10
52.901136
 20
54.316829
 30
0.0
 10
52.902352
 20
54.878031
 30
0.0
  0
SPLINE
  5
24d
100
AcDbEntity
  8
0
 62
7
100
AcDbSpline
 70
8
 71
3
 72
8
 73
4
 74
0
 40
0
 40
0
 40
0
 40
0
 40
1
 40
1
 40
1
 40
1
 10
52.902352
 20
54.878031
 30
0.0
 10
52.903481
 20
55.439238
 30
0.0
 10
52.553864
 20
55.954505
 30
0.0
 10
51.853256
 20
56.423829
 30
0.0
  0
SPLINE
  5
24e
100
AcDbEntity
  8
0
 62
7
100
AcDbSpline
 70
8
 71
3
 72
8
 73
4
 74
0
 40
0
 40
0
 40
0
 40
0
 40
1
 40
1
 40
1
 40
1
 10
51.853256
 20
56.423829
 30
0.0
 10
51.215437
 20
56.788342
 30
0.0
 10
50.570844
 20
56.880338
 30
0.0
 10
49.919475
 20
56.699817
 30
0.0
  0
SPLINE
  5
24f
100
AcDbEntity
  8
0
 62
7
100
AcDbSpline
 70
8
 71
3
 72
8
 73
4
 74
0
 40
0
 40
0
 40
0
 40
0
 40
1
 40
1
 40
1
 40
1
 10
49.919475
 20
56.699817
 30
0.0
 10
49.268106
 20
56.519294
 30
0.0
 10
48.747638
 20
56.122907
 30
0.0
 10
48.358069
 20
55.510649
 30
0.0
  0
SPLINE
  5
250
100
AcDbEntity
  8
0
 62
7
100
AcDbSpline
 70
8
 71
3
 72
8
 73
4
 74
0
 40
0
 40
0
 40
0
 40
0
 40
1
 40
1
 40
1
 40
1
 10
48.358069
 20
55.510649
 30
0.0
 10
47.801459
 20
54.484562
 30
0.0
 10
47.769947
 20
53.500397
 30
0.0
 10
48.263531
 20
52.558153
 30
0.0
  0
SPLINE
  5
251
100
AcDbEntity
  8
0
 62
7
100
AcDbSpline
 70
8
 71
3
 72
8
 73
4
 74
0
 40
0
 40
0
 40
0
 40
0
 40
1
 40
1
 40
1
 40
1
 10
48.263531
 20
52.558153
 30
0.0
 10
48.757118
 20
51.615917
 30
0.0
 10
49.463923
 20
50.868121
 30
0.0
 10
50.383956
 20
50.314760
 30
0.0
  0
SPLINE
  5
252
100
AcDbEntity
  8
0
 62
7
100
AcDbSpline
 70
8
 71
3
 72
8
 73
4
 74
0
 40
0
 40
0
 40
0
 40
0
 40
1
 40
1
 40
1
 40
1
 10
50.383956
 20
50.314760
 30
0.0
 10
52.345728
 20
49.209041
 30
0.0
 10
54.197515
 20
48.981545
 30
0.0
 10
55.939320
 20
49.632270
 30
0.0
  0
SPLINE
  5
253
100
AcDbEntity
  8
0
 62
7
100
AcDbSpline
 70
8
 71
3
 72
8
 73
4
 74
0
 40
0
 40
0
 40
0
 40
0
 40
1
 40
1
 40
1
 40
1
 10
55.939320
 20
49.632270
 30
0.0
 10
57.681111
 20
50.283013
 30
0.0
 10
59.333294
 20
51.275207
 30
0.0
 10
60.895879
 20
52.608857
 30
0.0
  0
LWPOLYLINE
  5
254
100
AcDbEntity
  8
0
 62
7
100
AcDbPolyline
 90
2
 70
0
 10
56.045854
 20
64.675257
 30
0.0
 10
55.124804
 20
55.557198
 30
0.0
  0
LWPOLYLINE
  5
255
100
AcDbEntity
  8
0
 62
7
100
AcDbPolyline
 90
2
 70
0
 10
60.895879
 20
52.608857
 30
0.0
 10
64.708893
 20
55.673973
 30
0.0
  0
ENDSEC
  0
SECTION
  2
OBJECTS
  0
DICTIONARY
  5
C
330
0
100
AcDbDictionary
  3
ACAD_GROUP
350
D
  3
ACAD_MLINESTYLE
350
17
  0
DICTIONARY
  5
D
330
C
100
AcDbDictionary
  0
DICTIONARY
  5
1A
330
C
100
AcDbDictionary
  0
DICTIONARY
  5
17
330
C
100
AcDbDictionary
  3
STANDARD
350
18
  0
DICTIONARY
  5
19
330
C
100
AcDbDictionary
  0
ENDSEC
  0
EOF
