999
DXF created by Inkscape
  0
SECTION
  2
HEADER
  9
$ACADVER
  1
AC1014
  9
$HANDSEED
  5
FFFF
  9
$MEASUREMENT
 70
     1
  0
ENDSEC
  0
SECTION
  2
TABLES
  0
TABLE
  2
VPORT
  5
8
330
0
100
AcDbSymbolTable
 70
     4
  0
VPORT
  5
2E
330
8
100
AcDbSymbolTableRecord
100
AcDbViewportTableRecord
  2
*ACTIVE
 70
     0
 10
0.0
 20
0.0
 11
1.0
 21
1.0
 12
210.0
 22
148.5
 13
0.0
 23
0.0
 14
10.0
 24
10.0
 15
10.0
 25
10.0
 16
0.0
 26
0.0
 36
1.0
 17
0.0
 27
0.0
 37
0.0
 40
341.0
 41
1.24
 42
50.0
 43
0.0
 44
0.0
 50
0.0
 51
0.0
 71
     0
 72
   100
 73
     1
 74
     3
 75
     0
 76
     0
 77
     0
 78
     0
  0
ENDTAB
  0
TABLE
  2
LTYPE
  5
5
330
0
100
AcDbSymbolTable
 70
     1
  0
LTYPE
  5
14
330
5
100
AcDbSymbolTableRecord
100
AcDbLinetypeTableRecord
  2
BYBLOCK
 70
     0
  3

 72
    65
 73
     0
 40
0.0
  0
LTYPE
  5
15
330
5
100
AcDbSymbolTableRecord
100
AcDbLinetypeTableRecord
  2
BYLAYER
 70
     0
  3

 72
    65
 73
     0
 40
0.0
  0
LTYPE
  5
16
330
5
100
AcDbSymbolTableRecord
100
AcDbLinetypeTableRecord
  2
CONTINUOUS
 70
     0
  3
Solid line
 72
    65
 73
     0
 40
0.0
  0
ENDTAB
  0
TABLE
  2
LAYER
  5
2
330
0
100
AcDbSymbolTable
 70
1
  0
LAYER
  5
10
330
2
100
AcDbSymbolTableRecord
100
AcDbLayerTableRecord
  2
0
 70
     0
 62
     7
  6
CONTINUOUS
  0
ENDTAB
  0
TABLE
  2
STYLE
  5
3
330
0
100
AcDbSymbolTable
 70
     1
  0
STYLE
  5
11
330
3
100
AcDbSymbolTableRecord
100
AcDbTextStyleTableRecord
  2
STANDARD
 70
     0
 40
0.0
 41
1.0
 50
0.0
 71
     0
 42
2.5
  3
txt
  4

  0
ENDTAB
  0
TABLE
  2
VIEW
  5
6
330
0
100
AcDbSymbolTable
 70
     0
  0
ENDTAB
  0
TABLE
  2
UCS
  5
7
330
0
100
AcDbSymbolTable
 70
     0
  0
ENDTAB
  0
TABLE
  2
APPID
  5
9
330
0
100
AcDbSymbolTable
 70
     2
  0
APPID
  5
12
330
9
100
AcDbSymbolTableRecord
100
AcDbRegAppTableRecord
  2
ACAD
 70
     0
  0
ENDTAB
  0
TABLE
  2
DIMSTYLE
  5
A
330
0
100
AcDbSymbolTable
 70
     1
  0
DIMSTYLE
105
27
330
A
100
AcDbSymbolTableRecord
100
AcDbDimStyleTableRecord
  2
ISO-25
 70
     0
  3

  4

  5

  6

  7

 40
1.0
 41
2.5
 42
0.625
 43
3.75
 44
1.25
 45
0.0
 46
0.0
 47
0.0
 48
0.0
140
2.5
141
2.5
142
0.0
143
0.03937007874016
144
1.0
145
0.0
146
1.0
147
0.625
 71
     0
 72
     0
 73
     0
 74
     0
 75
     0
 76
     0
 77
     1
 78
     8
170
     0
171
     3
172
     1
173
     0
174
     0
175
     0
176
     0
177
     0
178
     0
270
     2
271
     2
272
     2
273
     2
274
     3
340
11
275
     0
280
     0
281
     0
282
     0
283
     0
284
     8
285
     0
286
     0
287
     3
288
     0
  0
ENDTAB
  0
TABLE
  2
BLOCK_RECORD
  5
1
330
0
100
AcDbSymbolTable
 70
     1
  0
BLOCK_RECORD
  5
1F
330
1
100
AcDbSymbolTableRecord
100
AcDbBlockTableRecord
  2
*MODEL_SPACE
  0
BLOCK_RECORD
  5
1B
330
1
100
AcDbSymbolTableRecord
100
AcDbBlockTableRecord
  2
*PAPER_SPACE
  0
ENDTAB
  0
ENDSEC
  0
SECTION
  2
BLOCKS
  0
BLOCK
  5
20
330
1F
100
AcDbEntity
  8
0
100
AcDbBlockBegin
  2
*MODEL_SPACE
 70
     0
 10
0.0
 20
0.0
 30
0.0
  3
*MODEL_SPACE
  1

  0
ENDBLK
  5
21
330
1F
100
AcDbEntity
  8
0
100
AcDbBlockEnd
  0
BLOCK
  5
1C
330
1B
100
AcDbEntity
 67
     1
  8
0
100
AcDbBlockBegin
  2
*PAPER_SPACE
  1

  0
ENDBLK
  5
1D
330
1B
100
AcDbEntity
 67
     1
  8
0
100
AcDbBlockEnd
  0
ENDSEC
  0
SECTION
  2
ENTITIES
  0
LWPOLYLINE
  5
100
100
AcDbEntity
  8
0
 62
7
100
AcDbPolyline
 90
2
 70
0
 10
28.625396
 20
195.942857
 30
0.0
 10
245.936508
 20
195.942857
 30
0.0
  0
LWPOLYLINE
  5
101
100
AcDbEntity
  8
0
 62
7
100
AcDbPolyline
 90
2
 70
0
 10
28.826985
 20
186.669841
 30
0.0
 10
246.138096
 20
186.669841
 30
0.0
  0
LWPOLYLINE
  5
102
100
AcDbEntity
  8
0
 62
7
100
AcDbPolyline
 90
13
 70
0
 10
28.322228
 20
179.377264
 30
0.0
 10
29.435685
 20
179.377264
 30
0.0
 10
29.435685
 20
176.003825
 30
0.0
 10
33.481603
 20
176.003825
 30
0.0
 10
33.481603
 20
179.377264
 30
0.0
 10
34.595060
 20
179.377264
 30
0.0
 10
34.595060
 20
171.147619
 30
0.0
 10
33.481603
 20
171.147619
 30
0.0
 10
33.481603
 20
175.066760
 30
0.0
 10
29.435685
 20
175.066760
 30
0.0
 10
29.435685
 20
171.147619
 30
0.0
 10
28.322228
 20
171.147619
 30
0.0
 10
28.322228
 20
179.377264
 30
0.0
  0
SPLINE
  5
103
100
AcDbEntity
  8
0
 62
7
100
AcDbSpline
 70
8
 71
3
 72
8
 73
4
 74
0
 40
0
 40
0
 40
0
 40
0
 40
1
 40
1
 40
1
 40
1
 10
37.384208
 20
173.991891
 30
0.0
 10
37.428303
 20
173.293682
 30
0.0
 10
37.638685
 20
172.761760
 30
0.0
 10
38.015350
 20
172.396122
 30
0.0
  0
SPLINE
  5
104
100
AcDbEntity
  8
0
 62
7
100
AcDbSpline
 70
8
 71
3
 72
8
 73
4
 74
0
 40
0
 40
0
 40
0
 40
0
 40
1
 40
1
 40
1
 40
1
 10
38.015350
 20
172.396122
 30
0.0
 10
38.392010
 20
172.030483
 30
0.0
 10
38.916585
 20
171.847662
 30
0.0
 10
39.589069
 20
171.847662
 30
0.0
  0
SPLINE
  5
105
100
AcDbEntity
  8
0
 62
7
100
AcDbSpline
 70
8
 71
3
 72
8
 73
4
 74
0
 40
0
 40
0
 40
0
 40
0
 40
1
 40
1
 40
1
 40
1
 10
39.589069
 20
171.847662
 30
0.0
 10
39.978590
 20
171.847662
 30
0.0
 10
40.356172
 20
171.895434
 30
0.0
 10
40.721816
 20
171.990978
 30
0.0
  0
SPLINE
  5
106
100
AcDbEntity
  8
0
 62
7
100
AcDbSpline
 70
8
 71
3
 72
8
 73
4
 74
0
 40
0
 40
0
 40
0
 40
0
 40
1
 40
1
 40
1
 40
1
 10
40.721816
 20
171.990978
 30
0.0
 10
41.087452
 20
172.086521
 30
0.0
 10
41.450333
 20
172.229839
 30
0.0
 10
41.810466
 20
172.420926
 30
0.0
  0
LWPOLYLINE
  5
107
100
AcDbEntity
  8
0
 62
7
100
AcDbPolyline
 90
3
 70
0
 10
42.047490
 20
174.487984
 30
0.0
 10
42.047490
 20
173.991891
 30
0.0
 10
37.384208
 20
173.991891
 30
0.0
  0
SPLINE
  5
108
100
AcDbEntity
  8
0
 62
7
100
AcDbSpline
 70
8
 71
3
 72
8
 73
4
 74
0
 40
0
 40
0
 40
0
 40
0
 40
1
 40
1
 40
1
 40
1
 10
41.810466
 20
171.461811
 30
0.0
 10
41.446659
 20
171.307472
 30
0.0
 10
41.073671
 20
171.189879
 30
0.0
 10
40.691500
 20
171.109033
 30
0.0
  0
SPLINE
  5
109
100
AcDbEntity
  8
0
 62
7
100
AcDbSpline
 70
8
 71
3
 72
8
 73
4
 74
0
 40
0
 40
0
 40
0
 40
0
 40
1
 40
1
 40
1
 40
1
 10
40.691500
 20
171.109033
 30
0.0
 10
40.309320
 20
171.028191
 30
0.0
 10
39.921632
 20
170.987768
 30
0.0
 10
39.528437
 20
170.987768
 30
0.0
  0
SPLINE
  5
10a
100
AcDbEntity
  8
0
 62
7
100
AcDbSpline
 70
8
 71
3
 72
8
 73
4
 74
0
 40
0
 40
0
 40
0
 40
0
 40
1
 40
1
 40
1
 40
1
 10
39.528437
 20
170.987768
 30
0.0
 10
38.543594
 20
170.987768
 30
0.0
 10
37.763625
 20
171.274399
 30
0.0
 10
37.188527
 20
171.847662
 30
0.0
  0
SPLINE
  5
10b
100
AcDbEntity
  8
0
 62
7
100
AcDbSpline
 70
8
 71
3
 72
8
 73
4
 74
0
 40
0
 40
0
 40
0
 40
0
 40
1
 40
1
 40
1
 40
1
 10
37.188527
 20
171.847662
 30
0.0
 10
36.613425
 20
172.420926
 30
0.0
 10
36.325875
 20
173.196301
 30
0.0
 10
36.325875
 20
174.173792
 30
0.0
  0
SPLINE
  5
10c
100
AcDbEntity
  8
0
 62
7
100
AcDbSpline
 70
8
 71
3
 72
8
 73
4
 74
0
 40
0
 40
0
 40
0
 40
0
 40
1
 40
1
 40
1
 40
1
 10
36.325875
 20
174.173792
 30
0.0
 10
36.325875
 20
175.184348
 30
0.0
 10
36.598725
 20
175.986367
 30
0.0
 10
37.144429
 20
176.579846
 30
0.0
  0
SPLINE
  5
10d
100
AcDbEntity
  8
0
 62
7
100
AcDbSpline
 70
8
 71
3
 72
8
 73
4
 74
0
 40
0
 40
0
 40
0
 40
0
 40
1
 40
1
 40
1
 40
1
 10
37.144429
 20
176.579846
 30
0.0
 10
37.690131
 20
177.173314
 30
0.0
 10
38.426003
 20
177.470051
 30
0.0
 10
39.352048
 20
177.470060
 30
0.0
  0
SPLINE
  5
10e
100
AcDbEntity
  8
0
 62
7
100
AcDbSpline
 70
8
 71
3
 72
8
 73
4
 74
0
 40
0
 40
0
 40
0
 40
0
 40
1
 40
1
 40
1
 40
1
 10
39.352048
 20
177.470060
 30
0.0
 10
40.182540
 20
177.470051
 30
0.0
 10
40.839404
 20
177.202713
 30
0.0
 10
41.322642
 20
176.668041
 30
0.0
  0
SPLINE
  5
10f
100
AcDbEntity
  8
0
 62
7
100
AcDbSpline
 70
8
 71
3
 72
8
 73
4
 74
0
 40
0
 40
0
 40
0
 40
0
 40
1
 40
1
 40
1
 40
1
 10
41.322642
 20
176.668041
 30
0.0
 10
41.805868
 20
176.133356
 30
0.0
 10
42.047482
 20
175.406671
 30
0.0
 10
42.047490
 20
174.487984
 30
0.0
  0
LWPOLYLINE
  5
110
100
AcDbEntity
  8
0
 62
7
100
AcDbPolyline
 90
2
 70
0
 10
41.810466
 20
172.420926
 30
0.0
 10
41.810466
 20
171.461811
 30
0.0
  0
SPLINE
  5
111
100
AcDbEntity
  8
0
 62
7
100
AcDbSpline
 70
8
 71
3
 72
8
 73
4
 74
0
 40
0
 40
0
 40
0
 40
0
 40
1
 40
1
 40
1
 40
1
 10
41.033254
 20
174.785641
 30
0.0
 10
41.025899
 20
175.340526
 30
0.0
 10
40.870640
 20
175.783336
 30
0.0
 10
40.567477
 20
176.114069
 30
0.0
  0
SPLINE
  5
112
100
AcDbEntity
  8
0
 62
7
100
AcDbSpline
 70
8
 71
3
 72
8
 73
4
 74
0
 40
0
 40
0
 40
0
 40
0
 40
1
 40
1
 40
1
 40
1
 10
40.567477
 20
176.114069
 30
0.0
 10
40.264303
 20
176.444794
 30
0.0
 10
39.862836
 20
176.610157
 30
0.0
 10
39.363071
 20
176.610162
 30
0.0
  0
SPLINE
  5
113
100
AcDbEntity
  8
0
 62
7
100
AcDbSpline
 70
8
 71
3
 72
8
 73
4
 74
0
 40
0
 40
0
 40
0
 40
0
 40
1
 40
1
 40
1
 40
1
 10
39.363071
 20
176.610162
 30
0.0
 10
38.797154
 20
176.610157
 30
0.0
 10
38.344238
 20
176.450306
 30
0.0
 10
38.004327
 20
176.130605
 30
0.0
  0
SPLINE
  5
114
100
AcDbEntity
  8
0
 62
7
100
AcDbSpline
 70
8
 71
3
 72
8
 73
4
 74
0
 40
0
 40
0
 40
0
 40
0
 40
1
 40
1
 40
1
 40
1
 10
38.004327
 20
176.130605
 30
0.0
 10
37.664407
 20
175.810895
 30
0.0
 10
37.468725
 20
175.360736
 30
0.0
 10
37.417282
 20
174.780129
 30
0.0
  0
LWPOLYLINE
  5
115
100
AcDbEntity
  8
0
 62
7
100
AcDbPolyline
 90
2
 70
0
 10
42.047490
 20
174.487984
 30
0.0
 10
42.047490
 20
174.487984
 30
0.0
  0
SPLINE
  5
116
100
AcDbEntity
  8
0
 62
7
100
AcDbSpline
 70
8
 71
3
 72
8
 73
4
 74
0
 40
0
 40
0
 40
0
 40
0
 40
1
 40
1
 40
1
 40
1
 10
47.289548
 20
176.373141
 30
0.0
 10
47.175623
 20
176.439280
 30
0.0
 10
47.051601
 20
176.487971
 30
0.0
 10
46.917477
 20
176.519213
 30
0.0
  0
SPLINE
  5
117
100
AcDbEntity
  8
0
 62
7
100
AcDbSpline
 70
8
 71
3
 72
8
 73
4
 74
0
 40
0
 40
0
 40
0
 40
0
 40
1
 40
1
 40
1
 40
1
 10
46.917477
 20
176.519213
 30
0.0
 10
46.783343
 20
176.550441
 30
0.0
 10
46.635433
 20
176.566060
 30
0.0
 10
46.473748
 20
176.566065
 30
0.0
  0
SPLINE
  5
118
100
AcDbEntity
  8
0
 62
7
100
AcDbSpline
 70
8
 71
3
 72
8
 73
4
 74
0
 40
0
 40
0
 40
0
 40
0
 40
1
 40
1
 40
1
 40
1
 10
46.473748
 20
176.566065
 30
0.0
 10
45.900481
 20
176.566060
 30
0.0
 10
45.460429
 20
176.379567
 30
0.0
 10
45.153588
 20
176.006582
 30
0.0
  0
SPLINE
  5
119
100
AcDbEntity
  8
0
 62
7
100
AcDbSpline
 70
8
 71
3
 72
8
 73
4
 74
0
 40
0
 40
0
 40
0
 40
0
 40
1
 40
1
 40
1
 40
1
 10
45.153588
 20
176.006582
 30
0.0
 10
44.846742
 20
175.633589
 30
0.0
 10
44.693321
 20
175.097993
 30
0.0
 10
44.693324
 20
174.399789
 30
0.0
  0
LWPOLYLINE
  5
11a
100
AcDbEntity
  8
0
 62
7
100
AcDbPolyline
 90
2
 70
0
 10
37.417282
 20
174.780129
 30
0.0
 10
41.033254
 20
174.785641
 30
0.0
  0
SPLINE
  5
11b
100
AcDbEntity
  8
0
 62
7
100
AcDbSpline
 70
8
 71
3
 72
8
 73
4
 74
0
 40
0
 40
0
 40
0
 40
0
 40
1
 40
1
 40
1
 40
1
 10
44.693324
 20
176.362117
 30
0.0
 10
44.906458
 20
176.736937
 30
0.0
 10
45.183902
 20
177.015301
 30
0.0
 10
45.525659
 20
177.197207
 30
0.0
  0
SPLINE
  5
11c
100
AcDbEntity
  8
0
 62
7
100
AcDbSpline
 70
8
 71
3
 72
8
 73
4
 74
0
 40
0
 40
0
 40
0
 40
0
 40
1
 40
1
 40
1
 40
1
 10
45.525659
 20
177.197207
 30
0.0
 10
45.867407
 20
177.379102
 30
0.0
 10
46.282655
 20
177.470051
 30
0.0
 10
46.771405
 20
177.470060
 30
0.0
  0
SPLINE
  5
11d
100
AcDbEntity
  8
0
 62
7
100
AcDbSpline
 70
8
 71
3
 72
8
 73
4
 74
0
 40
0
 40
0
 40
0
 40
0
 40
1
 40
1
 40
1
 40
1
 10
46.771405
 20
177.470060
 30
0.0
 10
46.841221
 20
177.470051
 30
0.0
 10
46.918392
 20
177.465459
 30
0.0
 10
47.002914
 20
177.456279
 30
0.0
  0
SPLINE
  5
11e
100
AcDbEntity
  8
0
 62
7
100
AcDbSpline
 70
8
 71
3
 72
8
 73
4
 74
0
 40
0
 40
0
 40
0
 40
0
 40
1
 40
1
 40
1
 40
1
 10
47.002914
 20
177.456279
 30
0.0
 10
47.087429
 20
177.447084
 30
0.0
 10
47.181138
 20
177.433306
 30
0.0
 10
47.284033
 20
177.414936
 30
0.0
  0
LWPOLYLINE
  5
11f
100
AcDbEntity
  8
0
 62
7
100
AcDbPolyline
 90
6
 70
0
 10
44.693324
 20
174.399789
 30
0.0
 10
44.693324
 20
171.147619
 30
0.0
 10
43.673576
 20
171.147619
 30
0.0
 10
43.673576
 20
177.321230
 30
0.0
 10
44.693324
 20
177.321230
 30
0.0
 10
44.693324
 20
176.362117
 30
0.0
  0
LWPOLYLINE
  5
120
100
AcDbEntity
  8
0
 62
7
100
AcDbPolyline
 90
2
 70
0
 10
47.284033
 20
177.414936
 30
0.0
 10
47.289548
 20
176.373141
 30
0.0
  0
SPLINE
  5
121
100
AcDbEntity
  8
0
 62
7
100
AcDbSpline
 70
8
 71
3
 72
8
 73
4
 74
0
 40
0
 40
0
 40
0
 40
0
 40
1
 40
1
 40
1
 40
1
 10
48.981778
 20
173.991891
 30
0.0
 10
49.025872
 20
173.293682
 30
0.0
 10
49.236255
 20
172.761760
 30
0.0
 10
49.612920
 20
172.396122
 30
0.0
  0
SPLINE
  5
122
100
AcDbEntity
  8
0
 62
7
100
AcDbSpline
 70
8
 71
3
 72
8
 73
4
 74
0
 40
0
 40
0
 40
0
 40
0
 40
1
 40
1
 40
1
 40
1
 10
49.612920
 20
172.396122
 30
0.0
 10
49.989579
 20
172.030483
 30
0.0
 10
50.514154
 20
171.847662
 30
0.0
 10
51.186639
 20
171.847662
 30
0.0
  0
SPLINE
  5
123
100
AcDbEntity
  8
0
 62
7
100
AcDbSpline
 70
8
 71
3
 72
8
 73
4
 74
0
 40
0
 40
0
 40
0
 40
0
 40
1
 40
1
 40
1
 40
1
 10
51.186639
 20
171.847662
 30
0.0
 10
51.576159
 20
171.847662
 30
0.0
 10
51.953741
 20
171.895434
 30
0.0
 10
52.319386
 20
171.990978
 30
0.0
  0
SPLINE
  5
124
100
AcDbEntity
  8
0
 62
7
100
AcDbSpline
 70
8
 71
3
 72
8
 73
4
 74
0
 40
0
 40
0
 40
0
 40
0
 40
1
 40
1
 40
1
 40
1
 10
52.319386
 20
171.990978
 30
0.0
 10
52.685021
 20
172.086521
 30
0.0
 10
53.047903
 20
172.229839
 30
0.0
 10
53.408035
 20
172.420926
 30
0.0
  0
LWPOLYLINE
  5
125
100
AcDbEntity
  8
0
 62
7
100
AcDbPolyline
 90
3
 70
0
 10
53.645060
 20
174.487984
 30
0.0
 10
53.645060
 20
173.991891
 30
0.0
 10
48.981778
 20
173.991891
 30
0.0
  0
SPLINE
  5
126
100
AcDbEntity
  8
0
 62
7
100
AcDbSpline
 70
8
 71
3
 72
8
 73
4
 74
0
 40
0
 40
0
 40
0
 40
0
 40
1
 40
1
 40
1
 40
1
 10
53.408035
 20
171.461811
 30
0.0
 10
53.044228
 20
171.307472
 30
0.0
 10
52.671241
 20
171.189879
 30
0.0
 10
52.289069
 20
171.109033
 30
0.0
  0
SPLINE
  5
127
100
AcDbEntity
  8
0
 62
7
100
AcDbSpline
 70
8
 71
3
 72
8
 73
4
 74
0
 40
0
 40
0
 40
0
 40
0
 40
1
 40
1
 40
1
 40
1
 10
52.289069
 20
171.109033
 30
0.0
 10
51.906890
 20
171.028191
 30
0.0
 10
51.519201
 20
170.987768
 30
0.0
 10
51.126006
 20
170.987768
 30
0.0
  0
SPLINE
  5
128
100
AcDbEntity
  8
0
 62
7
100
AcDbSpline
 70
8
 71
3
 72
8
 73
4
 74
0
 40
0
 40
0
 40
0
 40
0
 40
1
 40
1
 40
1
 40
1
 10
51.126006
 20
170.987768
 30
0.0
 10
50.141164
 20
170.987768
 30
0.0
 10
49.361194
 20
171.274399
 30
0.0
 10
48.786096
 20
171.847662
 30
0.0
  0
SPLINE
  5
129
100
AcDbEntity
  8
0
 62
7
100
AcDbSpline
 70
8
 71
3
 72
8
 73
4
 74
0
 40
0
 40
0
 40
0
 40
0
 40
1
 40
1
 40
1
 40
1
 10
48.786096
 20
171.847662
 30
0.0
 10
48.210995
 20
172.420926
 30
0.0
 10
47.923444
 20
173.196301
 30
0.0
 10
47.923444
 20
174.173792
 30
0.0
  0
SPLINE
  5
12a
100
AcDbEntity
  8
0
 62
7
100
AcDbSpline
 70
8
 71
3
 72
8
 73
4
 74
0
 40
0
 40
0
 40
0
 40
0
 40
1
 40
1
 40
1
 40
1
 10
47.923444
 20
174.173792
 30
0.0
 10
47.923444
 20
175.184348
 30
0.0
 10
48.196294
 20
175.986367
 30
0.0
 10
48.741999
 20
176.579846
 30
0.0
  0
SPLINE
  5
12b
100
AcDbEntity
  8
0
 62
7
100
AcDbSpline
 70
8
 71
3
 72
8
 73
4
 74
0
 40
0
 40
0
 40
0
 40
0
 40
1
 40
1
 40
1
 40
1
 10
48.741999
 20
176.579846
 30
0.0
 10
49.287701
 20
177.173314
 30
0.0
 10
50.023573
 20
177.470051
 30
0.0
 10
50.949617
 20
177.470060
 30
0.0
  0
SPLINE
  5
12c
100
AcDbEntity
  8
0
 62
7
100
AcDbSpline
 70
8
 71
3
 72
8
 73
4
 74
0
 40
0
 40
0
 40
0
 40
0
 40
1
 40
1
 40
1
 40
1
 10
50.949617
 20
177.470060
 30
0.0
 10
51.780110
 20
177.470051
 30
0.0
 10
52.436974
 20
177.202713
 30
0.0
 10
52.920211
 20
176.668041
 30
0.0
  0
SPLINE
  5
12d
100
AcDbEntity
  8
0
 62
7
100
AcDbSpline
 70
8
 71
3
 72
8
 73
4
 74
0
 40
0
 40
0
 40
0
 40
0
 40
1
 40
1
 40
1
 40
1
 10
52.920211
 20
176.668041
 30
0.0
 10
53.403438
 20
176.133356
 30
0.0
 10
53.645051
 20
175.406671
 30
0.0
 10
53.645060
 20
174.487984
 30
0.0
  0
LWPOLYLINE
  5
12e
100
AcDbEntity
  8
0
 62
7
100
AcDbPolyline
 90
2
 70
0
 10
53.408035
 20
172.420926
 30
0.0
 10
53.408035
 20
171.461811
 30
0.0
  0
SPLINE
  5
12f
100
AcDbEntity
  8
0
 62
7
100
AcDbSpline
 70
8
 71
3
 72
8
 73
4
 74
0
 40
0
 40
0
 40
0
 40
0
 40
1
 40
1
 40
1
 40
1
 10
52.630824
 20
174.785641
 30
0.0
 10
52.623469
 20
175.340526
 30
0.0
 10
52.468210
 20
175.783336
 30
0.0
 10
52.165047
 20
176.114069
 30
0.0
  0
SPLINE
  5
130
100
AcDbEntity
  8
0
 62
7
100
AcDbSpline
 70
8
 71
3
 72
8
 73
4
 74
0
 40
0
 40
0
 40
0
 40
0
 40
1
 40
1
 40
1
 40
1
 10
52.165047
 20
176.114069
 30
0.0
 10
51.861872
 20
176.444794
 30
0.0
 10
51.460406
 20
176.610157
 30
0.0
 10
50.960641
 20
176.610162
 30
0.0
  0
SPLINE
  5
131
100
AcDbEntity
  8
0
 62
7
100
AcDbSpline
 70
8
 71
3
 72
8
 73
4
 74
0
 40
0
 40
0
 40
0
 40
0
 40
1
 40
1
 40
1
 40
1
 10
50.960641
 20
176.610162
 30
0.0
 10
50.394723
 20
176.610157
 30
0.0
 10
49.941807
 20
176.450306
 30
0.0
 10
49.601896
 20
176.130605
 30
0.0
  0
SPLINE
  5
132
100
AcDbEntity
  8
0
 62
7
100
AcDbSpline
 70
8
 71
3
 72
8
 73
4
 74
0
 40
0
 40
0
 40
0
 40
0
 40
1
 40
1
 40
1
 40
1
 10
49.601896
 20
176.130605
 30
0.0
 10
49.261976
 20
175.810895
 30
0.0
 10
49.066295
 20
175.360736
 30
0.0
 10
49.014851
 20
174.780129
 30
0.0
  0
LWPOLYLINE
  5
133
100
AcDbEntity
  8
0
 62
7
100
AcDbPolyline
 90
2
 70
0
 10
53.645060
 20
174.487984
 30
0.0
 10
53.645060
 20
174.487984
 30
0.0
  0
LWPOLYLINE
  5
134
100
AcDbEntity
  8
0
 62
7
100
AcDbPolyline
 90
2
 70
0
 10
49.014851
 20
174.780129
 30
0.0
 10
52.630824
 20
174.785641
 30
0.0
  0
LWPOLYLINE
  5
135
100
AcDbEntity
  8
0
 62
7
100
AcDbPolyline
 90
5
 70
0
 10
58.903653
 20
177.321230
 30
0.0
 10
59.917889
 20
177.321230
 30
0.0
 10
59.917889
 20
171.147619
 30
0.0
 10
58.903653
 20
171.147619
 30
0.0
 10
58.903653
 20
177.321230
 30
0.0
  0
LWPOLYLINE
  5
136
100
AcDbEntity
  8
0
 62
7
100
AcDbPolyline
 90
5
 70
0
 10
58.903653
 20
179.724530
 30
0.0
 10
59.917889
 20
179.724530
 30
0.0
 10
59.917889
 20
178.440199
 30
0.0
 10
58.903653
 20
178.440199
 30
0.0
 10
58.903653
 20
179.724530
 30
0.0
  0
SPLINE
  5
137
100
AcDbEntity
  8
0
 62
7
100
AcDbSpline
 70
8
 71
3
 72
8
 73
4
 74
0
 40
0
 40
0
 40
0
 40
0
 40
1
 40
1
 40
1
 40
1
 10
65.970232
 20
176.180214
 30
0.0
 10
65.683596
 20
176.327201
 30
0.0
 10
65.385939
 20
176.437442
 30
0.0
 10
65.077264
 20
176.510944
 30
0.0
  0
SPLINE
  5
138
100
AcDbEntity
  8
0
 62
7
100
AcDbSpline
 70
8
 71
3
 72
8
 73
4
 74
0
 40
0
 40
0
 40
0
 40
0
 40
1
 40
1
 40
1
 40
1
 10
65.077264
 20
176.510944
 30
0.0
 10
64.768580
 20
176.584435
 30
0.0
 10
64.448876
 20
176.621183
 30
0.0
 10
64.118149
 20
176.621186
 30
0.0
  0
SPLINE
  5
139
100
AcDbEntity
  8
0
 62
7
100
AcDbSpline
 70
8
 71
3
 72
8
 73
4
 74
0
 40
0
 40
0
 40
0
 40
0
 40
1
 40
1
 40
1
 40
1
 10
64.118149
 20
176.621186
 30
0.0
 10
63.614704
 20
176.621183
 30
0.0
 10
63.237121
 20
176.544012
 30
0.0
 10
62.985402
 20
176.389676
 30
0.0
  0
SPLINE
  5
13a
100
AcDbEntity
  8
0
 62
7
100
AcDbSpline
 70
8
 71
3
 72
8
 73
4
 74
0
 40
0
 40
0
 40
0
 40
0
 40
1
 40
1
 40
1
 40
1
 10
62.985402
 20
176.389676
 30
0.0
 10
62.733679
 20
176.235332
 30
0.0
 10
62.607817
 20
176.003822
 30
0.0
 10
62.607819
 20
175.695144
 30
0.0
  0
SPLINE
  5
13b
100
AcDbEntity
  8
0
 62
7
100
AcDbSpline
 70
8
 71
3
 72
8
 73
4
 74
0
 40
0
 40
0
 40
0
 40
0
 40
1
 40
1
 40
1
 40
1
 10
62.607819
 20
175.695144
 30
0.0
 10
62.607817
 20
175.459957
 30
0.0
 10
62.697848
 20
175.275299
 30
0.0
 10
62.877914
 20
175.141173
 30
0.0
  0
SPLINE
  5
13c
100
AcDbEntity
  8
0
 62
7
100
AcDbSpline
 70
8
 71
3
 72
8
 73
4
 74
0
 40
0
 40
0
 40
0
 40
0
 40
1
 40
1
 40
1
 40
1
 10
62.877914
 20
175.141173
 30
0.0
 10
63.057975
 20
175.007041
 30
0.0
 10
63.419942
 20
174.879344
 30
0.0
 10
63.963810
 20
174.758079
 30
0.0
  0
LWPOLYLINE
  5
13d
100
AcDbEntity
  8
0
 62
7
100
AcDbPolyline
 90
2
 70
0
 10
65.970232
 20
177.139329
 30
0.0
 10
65.970232
 20
176.180214
 30
0.0
  0
SPLINE
  5
13e
100
AcDbEntity
  8
0
 62
7
100
AcDbSpline
 70
8
 71
3
 72
8
 73
4
 74
0
 40
0
 40
0
 40
0
 40
0
 40
1
 40
1
 40
1
 40
1
 10
64.311076
 20
174.680908
 30
0.0
 10
65.031326
 20
174.526567
 30
0.0
 10
65.543035
 20
174.308835
 30
0.0
 10
65.846209
 20
174.027719
 30
0.0
  0
SPLINE
  5
13f
100
AcDbEntity
  8
0
 62
7
100
AcDbSpline
 70
8
 71
3
 72
8
 73
4
 74
0
 40
0
 40
0
 40
0
 40
0
 40
1
 40
1
 40
1
 40
1
 10
65.846209
 20
174.027719
 30
0.0
 10
66.149372
 20
173.746597
 30
0.0
 10
66.300957
 20
173.354317
 30
0.0
 10
66.300962
 20
172.850875
 30
0.0
  0
SPLINE
  5
140
100
AcDbEntity
  8
0
 62
7
100
AcDbSpline
 70
8
 71
3
 72
8
 73
4
 74
0
 40
0
 40
0
 40
0
 40
0
 40
1
 40
1
 40
1
 40
1
 10
66.300962
 20
172.850875
 30
0.0
 10
66.300957
 20
172.277611
 30
0.0
 10
66.074039
 20
171.823775
 30
0.0
 10
65.620211
 20
171.489373
 30
0.0
  0
SPLINE
  5
141
100
AcDbEntity
  8
0
 62
7
100
AcDbSpline
 70
8
 71
3
 72
8
 73
4
 74
0
 40
0
 40
0
 40
0
 40
0
 40
1
 40
1
 40
1
 40
1
 10
65.620211
 20
171.489373
 30
0.0
 10
65.166373
 20
171.154971
 30
0.0
 10
64.542583
 20
170.987768
 30
0.0
 10
63.748835
 20
170.987768
 30
0.0
  0
SPLINE
  5
142
100
AcDbEntity
  8
0
 62
7
100
AcDbSpline
 70
8
 71
3
 72
8
 73
4
 74
0
 40
0
 40
0
 40
0
 40
0
 40
1
 40
1
 40
1
 40
1
 10
63.748835
 20
170.987768
 30
0.0
 10
63.418102
 20
170.987768
 30
0.0
 10
63.073593
 20
171.019922
 30
0.0
 10
62.715307
 20
171.084229
 30
0.0
  0
SPLINE
  5
143
100
AcDbEntity
  8
0
 62
7
100
AcDbSpline
 70
8
 71
3
 72
8
 73
4
 74
0
 40
0
 40
0
 40
0
 40
0
 40
1
 40
1
 40
1
 40
1
 10
62.715307
 20
171.084229
 30
0.0
 10
62.357014
 20
171.148539
 30
0.0
 10
61.979432
 20
171.245002
 30
0.0
 10
61.582560
 20
171.373617
 30
0.0
  0
LWPOLYLINE
  5
144
100
AcDbEntity
  8
0
 62
7
100
AcDbPolyline
 90
2
 70
0
 10
63.963810
 20
174.758079
 30
0.0
 10
64.311076
 20
174.680908
 30
0.0
  0
SPLINE
  5
145
100
AcDbEntity
  8
0
 62
7
100
AcDbSpline
 70
8
 71
3
 72
8
 73
4
 74
0
 40
0
 40
0
 40
0
 40
0
 40
1
 40
1
 40
1
 40
1
 10
61.582560
 20
172.420926
 30
0.0
 10
61.957385
 20
172.226162
 30
0.0
 10
62.326698
 20
172.080092
 30
0.0
 10
62.690502
 20
171.982711
 30
0.0
  0
SPLINE
  5
146
100
AcDbEntity
  8
0
 62
7
100
AcDbSpline
 70
8
 71
3
 72
8
 73
4
 74
0
 40
0
 40
0
 40
0
 40
0
 40
1
 40
1
 40
1
 40
1
 10
62.690502
 20
171.982711
 30
0.0
 10
63.054301
 20
171.885328
 30
0.0
 10
63.414427
 20
171.836639
 30
0.0
 10
63.770883
 20
171.836639
 30
0.0
  0
SPLINE
  5
147
100
AcDbEntity
  8
0
 62
7
100
AcDbSpline
 70
8
 71
3
 72
8
 73
4
 74
0
 40
0
 40
0
 40
0
 40
0
 40
1
 40
1
 40
1
 40
1
 10
63.770883
 20
171.836639
 30
0.0
 10
64.248600
 20
171.836639
 30
0.0
 10
64.616076
 20
171.918401
 30
0.0
 10
64.873313
 20
172.081929
 30
0.0
  0
SPLINE
  5
148
100
AcDbEntity
  8
0
 62
7
100
AcDbSpline
 70
8
 71
3
 72
8
 73
4
 74
0
 40
0
 40
0
 40
0
 40
0
 40
1
 40
1
 40
1
 40
1
 10
64.873313
 20
172.081929
 30
0.0
 10
65.130545
 20
172.245455
 30
0.0
 10
65.259162
 20
172.476047
 30
0.0
 10
65.259164
 20
172.773704
 30
0.0
  0
SPLINE
  5
149
100
AcDbEntity
  8
0
 62
7
100
AcDbSpline
 70
8
 71
3
 72
8
 73
4
 74
0
 40
0
 40
0
 40
0
 40
0
 40
1
 40
1
 40
1
 40
1
 10
65.259164
 20
172.773704
 30
0.0
 10
65.259162
 20
173.049311
 30
0.0
 10
65.166373
 20
173.260611
 30
0.0
 10
64.980800
 20
173.407603
 30
0.0
  0
SPLINE
  5
14a
100
AcDbEntity
  8
0
 62
7
100
AcDbSpline
 70
8
 71
3
 72
8
 73
4
 74
0
 40
0
 40
0
 40
0
 40
0
 40
1
 40
1
 40
1
 40
1
 10
64.980800
 20
173.407603
 30
0.0
 10
64.795222
 20
173.554590
 30
0.0
 10
64.388241
 20
173.696068
 30
0.0
 10
63.759859
 20
173.832037
 30
0.0
  0
LWPOLYLINE
  5
14b
100
AcDbEntity
  8
0
 62
7
100
AcDbPolyline
 90
2
 70
0
 10
61.582560
 20
171.373617
 30
0.0
 10
61.582560
 20
172.420926
 30
0.0
  0
SPLINE
  5
14c
100
AcDbEntity
  8
0
 62
7
100
AcDbSpline
 70
8
 71
3
 72
8
 73
4
 74
0
 40
0
 40
0
 40
0
 40
0
 40
1
 40
1
 40
1
 40
1
 10
63.407081
 20
173.914720
 30
0.0
 10
62.778694
 20
174.047009
 30
0.0
 10
62.324861
 20
174.250040
 30
0.0
 10
62.045579
 20
174.523812
 30
0.0
  0
SPLINE
  5
14d
100
AcDbEntity
  8
0
 62
7
100
AcDbSpline
 70
8
 71
3
 72
8
 73
4
 74
0
 40
0
 40
0
 40
0
 40
0
 40
1
 40
1
 40
1
 40
1
 10
62.045579
 20
174.523812
 30
0.0
 10
61.766298
 20
174.797579
 30
0.0
 10
61.626657
 20
175.173324
 30
0.0
 10
61.626657
 20
175.651047
 30
0.0
  0
SPLINE
  5
14e
100
AcDbEntity
  8
0
 62
7
100
AcDbSpline
 70
8
 71
3
 72
8
 73
4
 74
0
 40
0
 40
0
 40
0
 40
0
 40
1
 40
1
 40
1
 40
1
 10
61.626657
 20
175.651047
 30
0.0
 10
61.626657
 20
176.231657
 30
0.0
 10
61.832442
 20
176.679979
 30
0.0
 10
62.244018
 20
176.996014
 30
0.0
  0
SPLINE
  5
14f
100
AcDbEntity
  8
0
 62
7
100
AcDbSpline
 70
8
 71
3
 72
8
 73
4
 74
0
 40
0
 40
0
 40
0
 40
0
 40
1
 40
1
 40
1
 40
1
 10
62.244018
 20
176.996014
 30
0.0
 10
62.655588
 20
177.312038
 30
0.0
 10
63.239879
 20
177.470051
 30
0.0
 10
63.996880
 20
177.470060
 30
0.0
  0
SPLINE
  5
150
100
AcDbEntity
  8
0
 62
7
100
AcDbSpline
 70
8
 71
3
 72
8
 73
4
 74
0
 40
0
 40
0
 40
0
 40
0
 40
1
 40
1
 40
1
 40
1
 10
63.996880
 20
177.470060
 30
0.0
 10
64.371705
 20
177.470051
 30
0.0
 10
64.724483
 20
177.442492
 30
0.0
 10
65.055214
 20
177.387377
 30
0.0
  0
SPLINE
  5
151
100
AcDbEntity
  8
0
 62
7
100
AcDbSpline
 70
8
 71
3
 72
8
 73
4
 74
0
 40
0
 40
0
 40
0
 40
0
 40
1
 40
1
 40
1
 40
1
 10
65.055214
 20
177.387377
 30
0.0
 10
65.385939
 20
177.332248
 30
0.0
 10
65.690945
 20
177.249568
 30
0.0
 10
65.970232
 20
177.139329
 30
0.0
  0
LWPOLYLINE
  5
152
100
AcDbEntity
  8
0
 62
7
100
AcDbPolyline
 90
2
 70
0
 10
63.759859
 20
173.832037
 30
0.0
 10
63.407081
 20
173.914720
 30
0.0
  0
SPLINE
  5
153
100
AcDbEntity
  8
0
 62
7
100
AcDbSpline
 70
8
 71
3
 72
8
 73
4
 74
0
 40
0
 40
0
 40
0
 40
0
 40
1
 40
1
 40
1
 40
1
 10
74.321145
 20
174.250962
 30
0.0
 10
73.501668
 20
174.250960
 30
0.0
 10
72.933916
 20
174.157253
 30
0.0
 10
72.617889
 20
173.969841
 30
0.0
  0
SPLINE
  5
154
100
AcDbEntity
  8
0
 62
7
100
AcDbSpline
 70
8
 71
3
 72
8
 73
4
 74
0
 40
0
 40
0
 40
0
 40
0
 40
1
 40
1
 40
1
 40
1
 10
72.617889
 20
173.969841
 30
0.0
 10
72.301856
 20
173.782426
 30
0.0
 10
72.143843
 20
173.462721
 30
0.0
 10
72.143843
 20
173.010728
 30
0.0
  0
SPLINE
  5
155
100
AcDbEntity
  8
0
 62
7
100
AcDbSpline
 70
8
 71
3
 72
8
 73
4
 74
0
 40
0
 40
0
 40
0
 40
0
 40
1
 40
1
 40
1
 40
1
 10
72.143843
 20
173.010728
 30
0.0
 10
72.143843
 20
172.650599
 30
0.0
 10
72.262354
 20
172.364885
 30
0.0
 10
72.499378
 20
172.153588
 30
0.0
  0
SPLINE
  5
156
100
AcDbEntity
  8
0
 62
7
100
AcDbSpline
 70
8
 71
3
 72
8
 73
4
 74
0
 40
0
 40
0
 40
0
 40
0
 40
1
 40
1
 40
1
 40
1
 10
72.499378
 20
172.153588
 30
0.0
 10
72.736397
 20
171.942289
 30
0.0
 10
73.058858
 20
171.836639
 30
0.0
 10
73.466760
 20
171.836639
 30
0.0
  0
SPLINE
  5
157
100
AcDbEntity
  8
0
 62
7
100
AcDbSpline
 70
8
 71
3
 72
8
 73
4
 74
0
 40
0
 40
0
 40
0
 40
0
 40
1
 40
1
 40
1
 40
1
 10
73.466760
 20
171.836639
 30
0.0
 10
74.028997
 20
171.836639
 30
0.0
 10
74.480073
 20
172.035995
 30
0.0
 10
74.819993
 20
172.434707
 30
0.0
  0
SPLINE
  5
158
100
AcDbEntity
  8
0
 62
7
100
AcDbSpline
 70
8
 71
3
 72
8
 73
4
 74
0
 40
0
 40
0
 40
0
 40
0
 40
1
 40
1
 40
1
 40
1
 10
74.819993
 20
172.434707
 30
0.0
 10
75.159904
 20
172.833417
 30
0.0
 10
75.329864
 20
173.363503
 30
0.0
 10
75.329867
 20
174.024965
 30
0.0
  0
LWPOLYLINE
  5
159
100
AcDbEntity
  8
0
 62
7
100
AcDbPolyline
 90
2
 70
0
 10
65.970232
 20
177.139329
 30
0.0
 10
65.970232
 20
177.139329
 30
0.0
  0
LWPOLYLINE
  5
15a
100
AcDbEntity
  8
0
 62
7
100
AcDbPolyline
 90
3
 70
0
 10
75.329867
 20
174.024965
 30
0.0
 10
75.329867
 20
174.250962
 30
0.0
 10
74.321145
 20
174.250962
 30
0.0
  0
SPLINE
  5
15b
100
AcDbEntity
  8
0
 62
7
100
AcDbSpline
 70
8
 71
3
 72
8
 73
4
 74
0
 40
0
 40
0
 40
0
 40
0
 40
1
 40
1
 40
1
 40
1
 10
75.329867
 20
172.084687
 30
0.0
 10
75.098354
 20
171.709859
 30
0.0
 10
74.809883
 20
171.433332
 30
0.0
 10
74.464460
 20
171.255106
 30
0.0
  0
SPLINE
  5
15c
100
AcDbEntity
  8
0
 62
7
100
AcDbSpline
 70
8
 71
3
 72
8
 73
4
 74
0
 40
0
 40
0
 40
0
 40
0
 40
1
 40
1
 40
1
 40
1
 10
74.464460
 20
171.255106
 30
0.0
 10
74.119029
 20
171.076880
 30
0.0
 10
73.696429
 20
170.987768
 30
0.0
 10
73.196664
 20
170.987768
 30
0.0
  0
SPLINE
  5
15d
100
AcDbEntity
  8
0
 62
7
100
AcDbSpline
 70
8
 71
3
 72
8
 73
4
 74
0
 40
0
 40
0
 40
0
 40
0
 40
1
 40
1
 40
1
 40
1
 10
73.196664
 20
170.987768
 30
0.0
 10
72.564602
 20
170.987768
 30
0.0
 10
72.062078
 20
171.165074
 30
0.0
 10
71.689090
 20
171.519689
 30
0.0
  0
SPLINE
  5
15e
100
AcDbEntity
  8
0
 62
7
100
AcDbSpline
 70
8
 71
3
 72
8
 73
4
 74
0
 40
0
 40
0
 40
0
 40
0
 40
1
 40
1
 40
1
 40
1
 10
71.689090
 20
171.519689
 30
0.0
 10
71.316102
 20
171.874304
 30
0.0
 10
71.129607
 20
172.349267
 30
0.0
 10
71.129607
 20
172.944581
 30
0.0
  0
SPLINE
  5
15f
100
AcDbEntity
  8
0
 62
7
100
AcDbSpline
 70
8
 71
3
 72
8
 73
4
 74
0
 40
0
 40
0
 40
0
 40
0
 40
1
 40
1
 40
1
 40
1
 10
71.129607
 20
172.944581
 30
0.0
 10
71.129607
 20
173.639110
 30
0.0
 10
71.362037
 20
174.162765
 30
0.0
 10
71.826896
 20
174.515546
 30
0.0
  0
SPLINE
  5
160
100
AcDbEntity
  8
0
 62
7
100
AcDbSpline
 70
8
 71
3
 72
8
 73
4
 74
0
 40
0
 40
0
 40
0
 40
0
 40
1
 40
1
 40
1
 40
1
 10
71.826896
 20
174.515546
 30
0.0
 10
72.291750
 20
174.868318
 30
0.0
 10
72.985362
 20
175.044707
 30
0.0
 10
73.907732
 20
175.044712
 30
0.0
  0
LWPOLYLINE
  5
161
100
AcDbEntity
  8
0
 62
7
100
AcDbPolyline
 90
4
 70
0
 10
76.344103
 20
174.669885
 30
0.0
 10
76.344103
 20
171.147619
 30
0.0
 10
75.329867
 20
171.147619
 30
0.0
 10
75.329867
 20
172.084687
 30
0.0
  0
SPLINE
  5
162
100
AcDbEntity
  8
0
 62
7
100
AcDbSpline
 70
8
 71
3
 72
8
 73
4
 74
0
 40
0
 40
0
 40
0
 40
0
 40
1
 40
1
 40
1
 40
1
 10
75.329867
 20
175.143930
 30
0.0
 10
75.329864
 20
175.610622
 30
0.0
 10
75.176442
 20
175.971668
 30
0.0
 10
74.869604
 20
176.227068
 30
0.0
  0
SPLINE
  5
163
100
AcDbEntity
  8
0
 62
7
100
AcDbSpline
 70
8
 71
3
 72
8
 73
4
 74
0
 40
0
 40
0
 40
0
 40
0
 40
1
 40
1
 40
1
 40
1
 10
74.869604
 20
176.227068
 30
0.0
 10
74.562756
 20
176.482460
 30
0.0
 10
74.131890
 20
176.610157
 30
0.0
 10
73.577004
 20
176.610162
 30
0.0
  0
SPLINE
  5
164
100
AcDbEntity
  8
0
 62
7
100
AcDbSpline
 70
8
 71
3
 72
8
 73
4
 74
0
 40
0
 40
0
 40
0
 40
0
 40
1
 40
1
 40
1
 40
1
 10
73.577004
 20
176.610162
 30
0.0
 10
73.224223
 20
176.610157
 30
0.0
 10
72.880632
 20
176.567897
 30
0.0
 10
72.546230
 20
176.483383
 30
0.0
  0
SPLINE
  5
165
100
AcDbEntity
  8
0
 62
7
100
AcDbSpline
 70
8
 71
3
 72
8
 73
4
 74
0
 40
0
 40
0
 40
0
 40
0
 40
1
 40
1
 40
1
 40
1
 10
72.546230
 20
176.483383
 30
0.0
 10
72.211825
 20
176.398860
 30
0.0
 10
71.890283
 20
176.272080
 30
0.0
 10
71.581603
 20
176.103046
 30
0.0
  0
LWPOLYLINE
  5
166
100
AcDbEntity
  8
0
 62
7
100
AcDbPolyline
 90
3
 70
0
 10
73.907732
 20
175.044712
 30
0.0
 10
75.329867
 20
175.044712
 30
0.0
 10
75.329867
 20
175.143930
 30
0.0
  0
SPLINE
  5
167
100
AcDbEntity
  8
0
 62
7
100
AcDbSpline
 70
8
 71
3
 72
8
 73
4
 74
0
 40
0
 40
0
 40
0
 40
0
 40
1
 40
1
 40
1
 40
1
 10
71.581603
 20
177.040111
 30
0.0
 10
71.952753
 20
177.183421
 30
0.0
 10
72.312880
 20
177.290908
 30
0.0
 10
72.661986
 20
177.362572
 30
0.0
  0
SPLINE
  5
168
100
AcDbEntity
  8
0
 62
7
100
AcDbSpline
 70
8
 71
3
 72
8
 73
4
 74
0
 40
0
 40
0
 40
0
 40
0
 40
1
 40
1
 40
1
 40
1
 10
72.661986
 20
177.362572
 30
0.0
 10
73.011086
 20
177.434223
 30
0.0
 10
73.351003
 20
177.470051
 30
0.0
 10
73.681734
 20
177.470060
 30
0.0
  0
SPLINE
  5
169
100
AcDbEntity
  8
0
 62
7
100
AcDbSpline
 70
8
 71
3
 72
8
 73
4
 74
0
 40
0
 40
0
 40
0
 40
0
 40
1
 40
1
 40
1
 40
1
 10
73.681734
 20
177.470060
 30
0.0
 10
74.574699
 20
177.470051
 30
0.0
 10
75.241669
 20
177.238541
 30
0.0
 10
75.682644
 20
176.775528
 30
0.0
  0
SPLINE
  5
16a
100
AcDbEntity
  8
0
 62
7
100
AcDbSpline
 70
8
 71
3
 72
8
 73
4
 74
0
 40
0
 40
0
 40
0
 40
0
 40
1
 40
1
 40
1
 40
1
 10
75.682644
 20
176.775528
 30
0.0
 10
76.123611
 20
176.312503
 30
0.0
 10
76.344097
 20
175.610622
 30
0.0
 10
76.344103
 20
174.669885
 30
0.0
  0
LWPOLYLINE
  5
16b
100
AcDbEntity
  8
0
 62
7
100
AcDbPolyline
 90
2
 70
0
 10
71.581603
 20
176.103046
 30
0.0
 10
71.581603
 20
177.040111
 30
0.0
  0
SPLINE
  5
16c
100
AcDbEntity
  8
0
 62
7
100
AcDbSpline
 70
8
 71
3
 72
8
 73
4
 74
0
 40
0
 40
0
 40
0
 40
0
 40
1
 40
1
 40
1
 40
1
 10
86.464417
 20
174.228912
 30
0.0
 10
86.464411
 20
174.974888
 30
0.0
 10
86.310989
 20
175.560093
 30
0.0
 10
86.004152
 20
175.984535
 30
0.0
  0
SPLINE
  5
16d
100
AcDbEntity
  8
0
 62
7
100
AcDbSpline
 70
8
 71
3
 72
8
 73
4
 74
0
 40
0
 40
0
 40
0
 40
0
 40
1
 40
1
 40
1
 40
1
 10
86.004152
 20
175.984535
 30
0.0
 10
85.697303
 20
176.408963
 30
0.0
 10
85.275626
 20
176.621183
 30
0.0
 10
84.739113
 20
176.621186
 30
0.0
  0
SPLINE
  5
16e
100
AcDbEntity
  8
0
 62
7
100
AcDbSpline
 70
8
 71
3
 72
8
 73
4
 74
0
 40
0
 40
0
 40
0
 40
0
 40
1
 40
1
 40
1
 40
1
 10
84.739113
 20
176.621186
 30
0.0
 10
84.202595
 20
176.621183
 30
0.0
 10
83.780915
 20
176.408963
 30
0.0
 10
83.474075
 20
175.984535
 30
0.0
  0
SPLINE
  5
16f
100
AcDbEntity
  8
0
 62
7
100
AcDbSpline
 70
8
 71
3
 72
8
 73
4
 74
0
 40
0
 40
0
 40
0
 40
0
 40
1
 40
1
 40
1
 40
1
 10
83.474075
 20
175.984535
 30
0.0
 10
83.167228
 20
175.560093
 30
0.0
 10
83.013807
 20
174.974888
 30
0.0
 10
83.013810
 20
174.228912
 30
0.0
  0
SPLINE
  5
170
100
AcDbEntity
  8
0
 62
7
100
AcDbSpline
 70
8
 71
3
 72
8
 73
4
 74
0
 40
0
 40
0
 40
0
 40
0
 40
1
 40
1
 40
1
 40
1
 10
83.013810
 20
174.228912
 30
0.0
 10
83.013807
 20
173.482931
 30
0.0
 10
83.167228
 20
172.897727
 30
0.0
 10
83.474075
 20
172.473293
 30
0.0
  0
SPLINE
  5
171
100
AcDbEntity
  8
0
 62
7
100
AcDbSpline
 70
8
 71
3
 72
8
 73
4
 74
0
 40
0
 40
0
 40
0
 40
0
 40
1
 40
1
 40
1
 40
1
 10
83.474075
 20
172.473293
 30
0.0
 10
83.780915
 20
172.048856
 30
0.0
 10
84.202595
 20
171.836639
 30
0.0
 10
84.739113
 20
171.836639
 30
0.0
  0
SPLINE
  5
172
100
AcDbEntity
  8
0
 62
7
100
AcDbSpline
 70
8
 71
3
 72
8
 73
4
 74
0
 40
0
 40
0
 40
0
 40
0
 40
1
 40
1
 40
1
 40
1
 10
84.739113
 20
171.836639
 30
0.0
 10
85.275626
 20
171.836639
 30
0.0
 10
85.697303
 20
172.048856
 30
0.0
 10
86.004152
 20
172.473293
 30
0.0
  0
SPLINE
  5
173
100
AcDbEntity
  8
0
 62
7
100
AcDbSpline
 70
8
 71
3
 72
8
 73
4
 74
0
 40
0
 40
0
 40
0
 40
0
 40
1
 40
1
 40
1
 40
1
 10
86.004152
 20
172.473293
 30
0.0
 10
86.310989
 20
172.897727
 30
0.0
 10
86.464411
 20
173.482931
 30
0.0
 10
86.464417
 20
174.228912
 30
0.0
  0
LWPOLYLINE
  5
174
100
AcDbEntity
  8
0
 62
7
100
AcDbPolyline
 90
2
 70
0
 10
76.344103
 20
174.669885
 30
0.0
 10
76.344103
 20
174.669885
 30
0.0
  0
SPLINE
  5
175
100
AcDbEntity
  8
0
 62
7
100
AcDbSpline
 70
8
 71
3
 72
8
 73
4
 74
0
 40
0
 40
0
 40
0
 40
0
 40
1
 40
1
 40
1
 40
1
 10
83.013810
 20
176.384164
 30
0.0
 10
83.226944
 20
176.751635
 30
0.0
 10
83.496119
 20
177.024487
 30
0.0
 10
83.821341
 20
177.202719
 30
0.0
  0
SPLINE
  5
176
100
AcDbEntity
  8
0
 62
7
100
AcDbSpline
 70
8
 71
3
 72
8
 73
4
 74
0
 40
0
 40
0
 40
0
 40
0
 40
1
 40
1
 40
1
 40
1
 10
83.821341
 20
177.202719
 30
0.0
 10
84.146554
 20
177.380940
 30
0.0
 10
84.535160
 20
177.470051
 30
0.0
 10
84.987158
 20
177.470060
 30
0.0
  0
SPLINE
  5
177
100
AcDbEntity
  8
0
 62
7
100
AcDbSpline
 70
8
 71
3
 72
8
 73
4
 74
0
 40
0
 40
0
 40
0
 40
0
 40
1
 40
1
 40
1
 40
1
 10
84.987158
 20
177.470060
 30
0.0
 10
85.736808
 20
177.470051
 30
0.0
 10
86.345900
 20
177.172397
 30
0.0
 10
86.814437
 20
176.577089
 30
0.0
  0
SPLINE
  5
178
100
AcDbEntity
  8
0
 62
7
100
AcDbSpline
 70
8
 71
3
 72
8
 73
4
 74
0
 40
0
 40
0
 40
0
 40
0
 40
1
 40
1
 40
1
 40
1
 10
86.814437
 20
176.577089
 30
0.0
 10
87.282965
 20
175.981772
 30
0.0
 10
87.517232
 20
175.199048
 30
0.0
 10
87.517238
 20
174.228912
 30
0.0
  0
SPLINE
  5
179
100
AcDbEntity
  8
0
 62
7
100
AcDbSpline
 70
8
 71
3
 72
8
 73
4
 74
0
 40
0
 40
0
 40
0
 40
0
 40
1
 40
1
 40
1
 40
1
 10
87.517238
 20
174.228912
 30
0.0
 10
87.517232
 20
173.258771
 30
0.0
 10
87.282965
 20
172.476047
 30
0.0
 10
86.814437
 20
171.880736
 30
0.0
  0
SPLINE
  5
17a
100
AcDbEntity
  8
0
 62
7
100
AcDbSpline
 70
8
 71
3
 72
8
 73
4
 74
0
 40
0
 40
0
 40
0
 40
0
 40
1
 40
1
 40
1
 40
1
 10
86.814437
 20
171.880736
 30
0.0
 10
86.345900
 20
171.285422
 30
0.0
 10
85.736808
 20
170.987768
 30
0.0
 10
84.987158
 20
170.987768
 30
0.0
  0
SPLINE
  5
17b
100
AcDbEntity
  8
0
 62
7
100
AcDbSpline
 70
8
 71
3
 72
8
 73
4
 74
0
 40
0
 40
0
 40
0
 40
0
 40
1
 40
1
 40
1
 40
1
 10
84.987158
 20
170.987768
 30
0.0
 10
84.535160
 20
170.987768
 30
0.0
 10
84.146554
 20
171.076880
 30
0.0
 10
83.821341
 20
171.255106
 30
0.0
  0
SPLINE
  5
17c
100
AcDbEntity
  8
0
 62
7
100
AcDbSpline
 70
8
 71
3
 72
8
 73
4
 74
0
 40
0
 40
0
 40
0
 40
0
 40
1
 40
1
 40
1
 40
1
 10
83.821341
 20
171.255106
 30
0.0
 10
83.496119
 20
171.433332
 30
0.0
 10
83.226944
 20
171.706184
 30
0.0
 10
83.013810
 20
172.073660
 30
0.0
  0
LWPOLYLINE
  5
17d
100
AcDbEntity
  8
0
 62
7
100
AcDbPolyline
 90
2
 70
0
 10
86.464417
 20
174.228912
 30
0.0
 10
86.464417
 20
174.228912
 30
0.0
  0
LWPOLYLINE
  5
17e
100
AcDbEntity
  8
0
 62
7
100
AcDbPolyline
 90
6
 70
0
 10
83.013810
 20
172.073660
 30
0.0
 10
83.013810
 20
171.147619
 30
0.0
 10
81.994062
 20
171.147619
 30
0.0
 10
81.994062
 20
179.724530
 30
0.0
 10
83.013810
 20
179.724530
 30
0.0
 10
83.013810
 20
176.384164
 30
0.0
  0
LWPOLYLINE
  5
17f
100
AcDbEntity
  8
0
 62
7
100
AcDbPolyline
 90
5
 70
0
 10
89.198444
 20
177.321230
 30
0.0
 10
90.212680
 20
177.321230
 30
0.0
 10
90.212680
 20
171.147619
 30
0.0
 10
89.198444
 20
171.147619
 30
0.0
 10
89.198444
 20
177.321230
 30
0.0
  0
LWPOLYLINE
  5
180
100
AcDbEntity
  8
0
 62
7
100
AcDbPolyline
 90
5
 70
0
 10
89.198444
 20
179.724530
 30
0.0
 10
90.212680
 20
179.724530
 30
0.0
 10
90.212680
 20
178.440199
 30
0.0
 10
89.198444
 20
178.440199
 30
0.0
 10
89.198444
 20
179.724530
 30
0.0
  0
SPLINE
  5
181
100
AcDbEntity
  8
0
 62
7
100
AcDbSpline
 70
8
 71
3
 72
8
 73
4
 74
0
 40
0
 40
0
 40
0
 40
0
 40
1
 40
1
 40
1
 40
1
 10
93.332560
 20
173.181603
 30
0.0
 10
93.332557
 20
172.678161
 30
0.0
 10
93.401459
 20
172.354779
 30
0.0
 10
93.539265
 20
172.211464
 30
0.0
  0
SPLINE
  5
182
100
AcDbEntity
  8
0
 62
7
100
AcDbSpline
 70
8
 71
3
 72
8
 73
4
 74
0
 40
0
 40
0
 40
0
 40
0
 40
1
 40
1
 40
1
 40
1
 10
93.539265
 20
172.211464
 30
0.0
 10
93.677065
 20
172.068149
 30
0.0
 10
93.957267
 20
171.996489
 30
0.0
 10
94.379867
 20
171.996492
 30
0.0
  0
LWPOLYLINE
  5
183
100
AcDbEntity
  8
0
 62
7
100
AcDbPolyline
 90
6
 70
0
 10
93.332560
 20
179.074095
 30
0.0
 10
93.332560
 20
177.321230
 30
0.0
 10
95.421664
 20
177.321230
 30
0.0
 10
95.421664
 20
176.532992
 30
0.0
 10
93.332560
 20
176.532992
 30
0.0
 10
93.332560
 20
173.181603
 30
0.0
  0
SPLINE
  5
184
100
AcDbEntity
  8
0
 62
7
100
AcDbSpline
 70
8
 71
3
 72
8
 73
4
 74
0
 40
0
 40
0
 40
0
 40
0
 40
1
 40
1
 40
1
 40
1
 10
94.379867
 20
171.147619
 30
0.0
 10
93.597140
 20
171.147619
 30
0.0
 10
93.056950
 20
171.293691
 30
0.0
 10
92.759296
 20
171.585836
 30
0.0
  0
SPLINE
  5
185
100
AcDbEntity
  8
0
 62
7
100
AcDbSpline
 70
8
 71
3
 72
8
 73
4
 74
0
 40
0
 40
0
 40
0
 40
0
 40
1
 40
1
 40
1
 40
1
 10
92.759296
 20
171.585836
 30
0.0
 10
92.461639
 20
171.877979
 30
0.0
 10
92.312809
 20
172.409903
 30
0.0
 10
92.312812
 20
173.181603
 30
0.0
  0
LWPOLYLINE
  5
186
100
AcDbEntity
  8
0
 62
7
100
AcDbPolyline
 90
4
 70
0
 10
94.379867
 20
171.996492
 30
0.0
 10
95.421664
 20
171.996492
 30
0.0
 10
95.421664
 20
171.147619
 30
0.0
 10
94.379867
 20
171.147619
 30
0.0
  0
SPLINE
  5
187
100
AcDbEntity
  8
0
 62
7
100
AcDbSpline
 70
8
 71
3
 72
8
 73
4
 74
0
 40
0
 40
0
 40
0
 40
0
 40
1
 40
1
 40
1
 40
1
 10
102.747315
 20
176.610162
 30
0.0
 10
102.203448
 20
176.610157
 30
0.0
 10
101.773499
 20
176.397940
 30
0.0
 10
101.457472
 20
175.973509
 30
0.0
  0
SPLINE
  5
188
100
AcDbEntity
  8
0
 62
7
100
AcDbSpline
 70
8
 71
3
 72
8
 73
4
 74
0
 40
0
 40
0
 40
0
 40
0
 40
1
 40
1
 40
1
 40
1
 10
101.457472
 20
175.973509
 30
0.0
 10
101.141440
 20
175.549069
 30
0.0
 10
100.983426
 20
174.967539
 30
0.0
 10
100.983426
 20
174.228912
 30
0.0
  0
SPLINE
  5
189
100
AcDbEntity
  8
0
 62
7
100
AcDbSpline
 70
8
 71
3
 72
8
 73
4
 74
0
 40
0
 40
0
 40
0
 40
0
 40
1
 40
1
 40
1
 40
1
 10
100.983426
 20
174.228912
 30
0.0
 10
100.983426
 20
173.490283
 30
0.0
 10
101.140522
 20
172.908750
 30
0.0
 10
101.454715
 20
172.484316
 30
0.0
  0
SPLINE
  5
18a
100
AcDbEntity
  8
0
 62
7
100
AcDbSpline
 70
8
 71
3
 72
8
 73
4
 74
0
 40
0
 40
0
 40
0
 40
0
 40
1
 40
1
 40
1
 40
1
 10
101.454715
 20
172.484316
 30
0.0
 10
101.768907
 20
172.059879
 30
0.0
 10
102.199773
 20
171.847662
 30
0.0
 10
102.747315
 20
171.847662
 30
0.0
  0
SPLINE
  5
18b
100
AcDbEntity
  8
0
 62
7
100
AcDbSpline
 70
8
 71
3
 72
8
 73
4
 74
0
 40
0
 40
0
 40
0
 40
0
 40
1
 40
1
 40
1
 40
1
 10
102.747315
 20
171.847662
 30
0.0
 10
103.287503
 20
171.847662
 30
0.0
 10
103.715614
 20
172.060799
 30
0.0
 10
104.031646
 20
172.487074
 30
0.0
  0
SPLINE
  5
18c
100
AcDbEntity
  8
0
 62
7
100
AcDbSpline
 70
8
 71
3
 72
8
 73
4
 74
0
 40
0
 40
0
 40
0
 40
0
 40
1
 40
1
 40
1
 40
1
 10
104.031646
 20
172.487074
 30
0.0
 10
104.347673
 20
172.913345
 30
0.0
 10
104.505687
 20
173.493958
 30
0.0
 10
104.505692
 20
174.228912
 30
0.0
  0
SPLINE
  5
18d
100
AcDbEntity
  8
0
 62
7
100
AcDbSpline
 70
8
 71
3
 72
8
 73
4
 74
0
 40
0
 40
0
 40
0
 40
0
 40
1
 40
1
 40
1
 40
1
 10
104.505692
 20
174.228912
 30
0.0
 10
104.505687
 20
174.960187
 30
0.0
 10
104.347673
 20
175.539883
 30
0.0
 10
104.031646
 20
175.967997
 30
0.0
  0
SPLINE
  5
18e
100
AcDbEntity
  8
0
 62
7
100
AcDbSpline
 70
8
 71
3
 72
8
 73
4
 74
0
 40
0
 40
0
 40
0
 40
0
 40
1
 40
1
 40
1
 40
1
 10
104.031646
 20
175.967997
 30
0.0
 10
103.715614
 20
176.396102
 30
0.0
 10
103.287503
 20
176.610157
 30
0.0
 10
102.747315
 20
176.610162
 30
0.0
  0
LWPOLYLINE
  5
18f
100
AcDbEntity
  8
0
 62
7
100
AcDbPolyline
 90
7
 70
0
 10
92.312812
 20
173.181603
 30
0.0
 10
92.312812
 20
176.532992
 30
0.0
 10
91.568671
 20
176.532992
 30
0.0
 10
91.568671
 20
177.321230
 30
0.0
 10
92.312812
 20
177.321230
 30
0.0
 10
92.312812
 20
179.074095
 30
0.0
 10
93.332560
 20
179.074095
 30
0.0
  0
SPLINE
  5
190
100
AcDbEntity
  8
0
 62
7
100
AcDbSpline
 70
8
 71
3
 72
8
 73
4
 74
0
 40
0
 40
0
 40
0
 40
0
 40
1
 40
1
 40
1
 40
1
 10
102.747315
 20
177.470060
 30
0.0
 10
103.629257
 20
177.470051
 30
0.0
 10
104.321949
 20
177.183421
 30
0.0
 10
104.825396
 20
176.610162
 30
0.0
  0
SPLINE
  5
191
100
AcDbEntity
  8
0
 62
7
100
AcDbSpline
 70
8
 71
3
 72
8
 73
4
 74
0
 40
0
 40
0
 40
0
 40
0
 40
1
 40
1
 40
1
 40
1
 10
104.825396
 20
176.610162
 30
0.0
 10
105.328836
 20
176.036896
 30
0.0
 10
105.580555
 20
175.243146
 30
0.0
 10
105.580561
 20
174.228912
 30
0.0
  0
SPLINE
  5
192
100
AcDbEntity
  8
0
 62
7
100
AcDbSpline
 70
8
 71
3
 72
8
 73
4
 74
0
 40
0
 40
0
 40
0
 40
0
 40
1
 40
1
 40
1
 40
1
 10
105.580561
 20
174.228912
 30
0.0
 10
105.580555
 20
173.218351
 30
0.0
 10
105.328836
 20
172.425518
 30
0.0
 10
104.825396
 20
171.850420
 30
0.0
  0
SPLINE
  5
193
100
AcDbEntity
  8
0
 62
7
100
AcDbSpline
 70
8
 71
3
 72
8
 73
4
 74
0
 40
0
 40
0
 40
0
 40
0
 40
1
 40
1
 40
1
 40
1
 10
104.825396
 20
171.850420
 30
0.0
 10
104.321949
 20
171.275319
 30
0.0
 10
103.629257
 20
170.987768
 30
0.0
 10
102.747315
 20
170.987768
 30
0.0
  0
SPLINE
  5
194
100
AcDbEntity
  8
0
 62
7
100
AcDbSpline
 70
8
 71
3
 72
8
 73
4
 74
0
 40
0
 40
0
 40
0
 40
0
 40
1
 40
1
 40
1
 40
1
 10
102.747315
 20
170.987768
 30
0.0
 10
101.861693
 20
170.987768
 30
0.0
 10
101.168081
 20
171.275319
 30
0.0
 10
100.666479
 20
171.850420
 30
0.0
  0
SPLINE
  5
195
100
AcDbEntity
  8
0
 62
7
100
AcDbSpline
 70
8
 71
3
 72
8
 73
4
 74
0
 40
0
 40
0
 40
0
 40
0
 40
1
 40
1
 40
1
 40
1
 10
100.666479
 20
171.850420
 30
0.0
 10
100.164872
 20
172.425518
 30
0.0
 10
99.914069
 20
173.218351
 30
0.0
 10
99.914069
 20
174.228912
 30
0.0
  0
SPLINE
  5
196
100
AcDbEntity
  8
0
 62
7
100
AcDbSpline
 70
8
 71
3
 72
8
 73
4
 74
0
 40
0
 40
0
 40
0
 40
0
 40
1
 40
1
 40
1
 40
1
 10
99.914069
 20
174.228912
 30
0.0
 10
99.914069
 20
175.243146
 30
0.0
 10
100.164872
 20
176.036896
 30
0.0
 10
100.666479
 20
176.610162
 30
0.0
  0
SPLINE
  5
197
100
AcDbEntity
  8
0
 62
7
100
AcDbSpline
 70
8
 71
3
 72
8
 73
4
 74
0
 40
0
 40
0
 40
0
 40
0
 40
1
 40
1
 40
1
 40
1
 10
100.666479
 20
176.610162
 30
0.0
 10
101.168081
 20
177.183421
 30
0.0
 10
101.861693
 20
177.470051
 30
0.0
 10
102.747315
 20
177.470060
 30
0.0
  0
LWPOLYLINE
  5
198
100
AcDbEntity
  8
0
 62
7
100
AcDbPolyline
 90
2
 70
0
 10
102.747315
 20
176.610162
 30
0.0
 10
102.747315
 20
176.610162
 30
0.0
  0
LWPOLYLINE
  5
199
100
AcDbEntity
  8
0
 62
7
100
AcDbPolyline
 90
2
 70
0
 10
102.747315
 20
177.470060
 30
0.0
 10
102.747315
 20
177.470060
 30
0.0
  0
SPLINE
  5
19a
100
AcDbEntity
  8
0
 62
7
100
AcDbSpline
 70
8
 71
3
 72
8
 73
4
 74
0
 40
0
 40
0
 40
0
 40
0
 40
1
 40
1
 40
1
 40
1
 10
109.411508
 20
178.881171
 30
0.0
 10
109.047703
 20
178.881162
 30
0.0
 10
108.795064
 20
178.807666
 30
0.0
 10
108.653588
 20
178.660685
 30
0.0
  0
SPLINE
  5
19b
100
AcDbEntity
  8
0
 62
7
100
AcDbSpline
 70
8
 71
3
 72
8
 73
4
 74
0
 40
0
 40
0
 40
0
 40
0
 40
1
 40
1
 40
1
 40
1
 10
108.653588
 20
178.660685
 30
0.0
 10
108.512108
 20
178.513686
 30
0.0
 10
108.441369
 20
178.249103
 30
0.0
 10
108.441369
 20
177.866935
 30
0.0
  0
LWPOLYLINE
  5
19c
100
AcDbEntity
  8
0
 62
7
100
AcDbPolyline
 90
3
 70
0
 10
110.381646
 20
179.724530
 30
0.0
 10
110.381646
 20
178.881171
 30
0.0
 10
109.411508
 20
178.881171
 30
0.0
  0
SPLINE
  5
19d
100
AcDbEntity
  8
0
 62
7
100
AcDbSpline
 70
8
 71
3
 72
8
 73
4
 74
0
 40
0
 40
0
 40
0
 40
0
 40
1
 40
1
 40
1
 40
1
 10
107.421621
 20
177.751178
 30
0.0
 10
107.421621
 20
178.438353
 30
0.0
 10
107.581471
 20
178.939040
 30
0.0
 10
107.901178
 20
179.253241
 30
0.0
  0
SPLINE
  5
19e
100
AcDbEntity
  8
0
 62
7
100
AcDbSpline
 70
8
 71
3
 72
8
 73
4
 74
0
 40
0
 40
0
 40
0
 40
0
 40
1
 40
1
 40
1
 40
1
 10
107.901178
 20
179.253241
 30
0.0
 10
108.220883
 20
179.567425
 30
0.0
 10
108.727999
 20
179.724521
 30
0.0
 10
109.422534
 20
179.724530
 30
0.0
  0
LWPOLYLINE
  5
19f
100
AcDbEntity
  8
0
 62
7
100
AcDbPolyline
 90
12
 70
0
 10
108.441369
 20
177.866935
 30
0.0
 10
108.441369
 20
177.321230
 30
0.0
 10
110.111551
 20
177.321230
 30
0.0
 10
110.111551
 20
176.532992
 30
0.0
 10
108.441369
 20
176.532992
 30
0.0
 10
108.441369
 20
171.147619
 30
0.0
 10
107.421621
 20
171.147619
 30
0.0
 10
107.421621
 20
176.532992
 30
0.0
 10
106.451482
 20
176.532992
 30
0.0
 10
106.451482
 20
177.321230
 30
0.0
 10
107.421621
 20
177.321230
 30
0.0
 10
107.421621
 20
177.751178
 30
0.0
  0
LWPOLYLINE
  5
1a0
100
AcDbEntity
  8
0
 62
7
100
AcDbPolyline
 90
2
 70
0
 10
109.422534
 20
179.724530
 30
0.0
 10
110.381646
 20
179.724530
 30
0.0
  0
SPLINE
  5
1a1
100
AcDbEntity
  8
0
 62
7
100
AcDbSpline
 70
8
 71
3
 72
8
 73
4
 74
0
 40
0
 40
0
 40
0
 40
0
 40
1
 40
1
 40
1
 40
1
 10
115.822143
 20
173.181603
 30
0.0
 10
115.822140
 20
172.678161
 30
0.0
 10
115.891042
 20
172.354779
 30
0.0
 10
116.028848
 20
172.211464
 30
0.0
  0
SPLINE
  5
1a2
100
AcDbEntity
  8
0
 62
7
100
AcDbSpline
 70
8
 71
3
 72
8
 73
4
 74
0
 40
0
 40
0
 40
0
 40
0
 40
1
 40
1
 40
1
 40
1
 10
116.028848
 20
172.211464
 30
0.0
 10
116.166649
 20
172.068149
 30
0.0
 10
116.446850
 20
171.996489
 30
0.0
 10
116.869450
 20
171.996492
 30
0.0
  0
LWPOLYLINE
  5
1a3
100
AcDbEntity
  8
0
 62
7
100
AcDbPolyline
 90
6
 70
0
 10
115.822143
 20
179.074095
 30
0.0
 10
115.822143
 20
177.321230
 30
0.0
 10
117.911248
 20
177.321230
 30
0.0
 10
117.911248
 20
176.532992
 30
0.0
 10
115.822143
 20
176.532992
 30
0.0
 10
115.822143
 20
173.181603
 30
0.0
  0
SPLINE
  5
1a4
100
AcDbEntity
  8
0
 62
7
100
AcDbSpline
 70
8
 71
3
 72
8
 73
4
 74
0
 40
0
 40
0
 40
0
 40
0
 40
1
 40
1
 40
1
 40
1
 10
116.869450
 20
171.147619
 30
0.0
 10
116.086723
 20
171.147619
 30
0.0
 10
115.546533
 20
171.293691
 30
0.0
 10
115.248879
 20
171.585836
 30
0.0
  0
SPLINE
  5
1a5
100
AcDbEntity
  8
0
 62
7
100
AcDbSpline
 70
8
 71
3
 72
8
 73
4
 74
0
 40
0
 40
0
 40
0
 40
0
 40
1
 40
1
 40
1
 40
1
 10
115.248879
 20
171.585836
 30
0.0
 10
114.951222
 20
171.877979
 30
0.0
 10
114.802392
 20
172.409903
 30
0.0
 10
114.802395
 20
173.181603
 30
0.0
  0
LWPOLYLINE
  5
1a6
100
AcDbEntity
  8
0
 62
7
100
AcDbPolyline
 90
4
 70
0
 10
116.869450
 20
171.996492
 30
0.0
 10
117.911248
 20
171.996492
 30
0.0
 10
117.911248
 20
171.147619
 30
0.0
 10
116.869450
 20
171.147619
 30
0.0
  0
LWPOLYLINE
  5
1a7
100
AcDbEntity
  8
0
 62
7
100
AcDbPolyline
 90
7
 70
0
 10
114.802395
 20
173.181603
 30
0.0
 10
114.802395
 20
176.532992
 30
0.0
 10
114.058254
 20
176.532992
 30
0.0
 10
114.058254
 20
177.321230
 30
0.0
 10
114.802395
 20
177.321230
 30
0.0
 10
114.802395
 20
179.074095
 30
0.0
 10
115.822143
 20
179.074095
 30
0.0
  0
SPLINE
  5
1a8
100
AcDbEntity
  8
0
 62
7
100
AcDbSpline
 70
8
 71
3
 72
8
 73
4
 74
0
 40
0
 40
0
 40
0
 40
0
 40
1
 40
1
 40
1
 40
1
 10
119.868061
 20
173.991891
 30
0.0
 10
119.912158
 20
173.293682
 30
0.0
 10
120.122538
 20
172.761760
 30
0.0
 10
120.499203
 20
172.396122
 30
0.0
  0
SPLINE
  5
1a9
100
AcDbEntity
  8
0
 62
7
100
AcDbSpline
 70
8
 71
3
 72
8
 73
4
 74
0
 40
0
 40
0
 40
0
 40
0
 40
1
 40
1
 40
1
 40
1
 10
120.499203
 20
172.396122
 30
0.0
 10
120.875865
 20
172.030483
 30
0.0
 10
121.400437
 20
171.847662
 30
0.0
 10
122.072922
 20
171.847662
 30
0.0
  0
SPLINE
  5
1aa
100
AcDbEntity
  8
0
 62
7
100
AcDbSpline
 70
8
 71
3
 72
8
 73
4
 74
0
 40
0
 40
0
 40
0
 40
0
 40
1
 40
1
 40
1
 40
1
 10
122.072922
 20
171.847662
 30
0.0
 10
122.462445
 20
171.847662
 30
0.0
 10
122.840028
 20
171.895434
 30
0.0
 10
123.205672
 20
171.990978
 30
0.0
  0
SPLINE
  5
1ab
100
AcDbEntity
  8
0
 62
7
100
AcDbSpline
 70
8
 71
3
 72
8
 73
4
 74
0
 40
0
 40
0
 40
0
 40
0
 40
1
 40
1
 40
1
 40
1
 10
123.205672
 20
171.990978
 30
0.0
 10
123.571305
 20
172.086521
 30
0.0
 10
123.934189
 20
172.229839
 30
0.0
 10
124.294321
 20
172.420926
 30
0.0
  0
LWPOLYLINE
  5
1ac
100
AcDbEntity
  8
0
 62
7
100
AcDbPolyline
 90
3
 70
0
 10
124.531343
 20
174.487984
 30
0.0
 10
124.531343
 20
173.991891
 30
0.0
 10
119.868061
 20
173.991891
 30
0.0
  0
SPLINE
  5
1ad
100
AcDbEntity
  8
0
 62
7
100
AcDbSpline
 70
8
 71
3
 72
8
 73
4
 74
0
 40
0
 40
0
 40
0
 40
0
 40
1
 40
1
 40
1
 40
1
 10
124.294321
 20
171.461811
 30
0.0
 10
123.930514
 20
171.307472
 30
0.0
 10
123.557524
 20
171.189879
 30
0.0
 10
123.175353
 20
171.109033
 30
0.0
  0
SPLINE
  5
1ae
100
AcDbEntity
  8
0
 62
7
100
AcDbSpline
 70
8
 71
3
 72
8
 73
4
 74
0
 40
0
 40
0
 40
0
 40
0
 40
1
 40
1
 40
1
 40
1
 10
123.175353
 20
171.109033
 30
0.0
 10
122.793173
 20
171.028191
 30
0.0
 10
122.405487
 20
170.987768
 30
0.0
 10
122.012289
 20
170.987768
 30
0.0
  0
SPLINE
  5
1af
100
AcDbEntity
  8
0
 62
7
100
AcDbSpline
 70
8
 71
3
 72
8
 73
4
 74
0
 40
0
 40
0
 40
0
 40
0
 40
1
 40
1
 40
1
 40
1
 10
122.012289
 20
170.987768
 30
0.0
 10
121.027450
 20
170.987768
 30
0.0
 10
120.247481
 20
171.274399
 30
0.0
 10
119.672382
 20
171.847662
 30
0.0
  0
SPLINE
  5
1b0
100
AcDbEntity
  8
0
 62
7
100
AcDbSpline
 70
8
 71
3
 72
8
 73
4
 74
0
 40
0
 40
0
 40
0
 40
0
 40
1
 40
1
 40
1
 40
1
 10
119.672382
 20
171.847662
 30
0.0
 10
119.097278
 20
172.420926
 30
0.0
 10
118.809728
 20
173.196301
 30
0.0
 10
118.809728
 20
174.173792
 30
0.0
  0
SPLINE
  5
1b1
100
AcDbEntity
  8
0
 62
7
100
AcDbSpline
 70
8
 71
3
 72
8
 73
4
 74
0
 40
0
 40
0
 40
0
 40
0
 40
1
 40
1
 40
1
 40
1
 10
118.809728
 20
174.173792
 30
0.0
 10
118.809728
 20
175.184348
 30
0.0
 10
119.082580
 20
175.986367
 30
0.0
 10
119.628285
 20
176.579846
 30
0.0
  0
SPLINE
  5
1b2
100
AcDbEntity
  8
0
 62
7
100
AcDbSpline
 70
8
 71
3
 72
8
 73
4
 74
0
 40
0
 40
0
 40
0
 40
0
 40
1
 40
1
 40
1
 40
1
 10
119.628285
 20
176.579846
 30
0.0
 10
120.173984
 20
177.173314
 30
0.0
 10
120.909856
 20
177.470051
 30
0.0
 10
121.835901
 20
177.470060
 30
0.0
  0
SPLINE
  5
1b3
100
AcDbEntity
  8
0
 62
7
100
AcDbSpline
 70
8
 71
3
 72
8
 73
4
 74
0
 40
0
 40
0
 40
0
 40
0
 40
1
 40
1
 40
1
 40
1
 10
121.835901
 20
177.470060
 30
0.0
 10
122.666393
 20
177.470051
 30
0.0
 10
123.323260
 20
177.202713
 30
0.0
 10
123.806495
 20
176.668041
 30
0.0
  0
SPLINE
  5
1b4
100
AcDbEntity
  8
0
 62
7
100
AcDbSpline
 70
8
 71
3
 72
8
 73
4
 74
0
 40
0
 40
0
 40
0
 40
0
 40
1
 40
1
 40
1
 40
1
 10
123.806495
 20
176.668041
 30
0.0
 10
124.289721
 20
176.133356
 30
0.0
 10
124.531337
 20
175.406671
 30
0.0
 10
124.531343
 20
174.487984
 30
0.0
  0
LWPOLYLINE
  5
1b5
100
AcDbEntity
  8
0
 62
7
100
AcDbPolyline
 90
2
 70
0
 10
124.294321
 20
172.420926
 30
0.0
 10
124.294321
 20
171.461811
 30
0.0
  0
SPLINE
  5
1b6
100
AcDbEntity
  8
0
 62
7
100
AcDbSpline
 70
8
 71
3
 72
8
 73
4
 74
0
 40
0
 40
0
 40
0
 40
0
 40
1
 40
1
 40
1
 40
1
 10
123.517107
 20
174.785641
 30
0.0
 10
123.509752
 20
175.340526
 30
0.0
 10
123.354493
 20
175.783336
 30
0.0
 10
123.051330
 20
176.114069
 30
0.0
  0
SPLINE
  5
1b7
100
AcDbEntity
  8
0
 62
7
100
AcDbSpline
 70
8
 71
3
 72
8
 73
4
 74
0
 40
0
 40
0
 40
0
 40
0
 40
1
 40
1
 40
1
 40
1
 10
123.051330
 20
176.114069
 30
0.0
 10
122.748159
 20
176.444794
 30
0.0
 10
122.346689
 20
176.610157
 30
0.0
 10
121.846924
 20
176.610162
 30
0.0
  0
SPLINE
  5
1b8
100
AcDbEntity
  8
0
 62
7
100
AcDbSpline
 70
8
 71
3
 72
8
 73
4
 74
0
 40
0
 40
0
 40
0
 40
0
 40
1
 40
1
 40
1
 40
1
 10
121.846924
 20
176.610162
 30
0.0
 10
121.281007
 20
176.610157
 30
0.0
 10
120.828094
 20
176.450306
 30
0.0
 10
120.488179
 20
176.130605
 30
0.0
  0
SPLINE
  5
1b9
100
AcDbEntity
  8
0
 62
7
100
AcDbSpline
 70
8
 71
3
 72
8
 73
4
 74
0
 40
0
 40
0
 40
0
 40
0
 40
1
 40
1
 40
1
 40
1
 10
120.488179
 20
176.130605
 30
0.0
 10
120.148263
 20
175.810895
 30
0.0
 10
119.952581
 20
175.360736
 30
0.0
 10
119.901135
 20
174.780129
 30
0.0
  0
LWPOLYLINE
  5
1ba
100
AcDbEntity
  8
0
 62
7
100
AcDbPolyline
 90
2
 70
0
 10
124.531343
 20
174.487984
 30
0.0
 10
124.531343
 20
174.487984
 30
0.0
  0
LWPOLYLINE
  5
1bb
100
AcDbEntity
  8
0
 62
7
100
AcDbPolyline
 90
2
 70
0
 10
119.901135
 20
174.780129
 30
0.0
 10
123.517107
 20
174.785641
 30
0.0
  0
LWPOLYLINE
  5
1bc
100
AcDbEntity
  8
0
 62
7
100
AcDbPolyline
 90
13
 70
0
 10
131.327827
 20
177.321230
 30
0.0
 10
129.095407
 20
174.317107
 30
0.0
 10
131.443583
 20
171.147619
 30
0.0
 10
130.247446
 20
171.147619
 30
0.0
 10
128.450484
 20
173.572966
 30
0.0
 10
126.653521
 20
171.147619
 30
0.0
 10
125.457385
 20
171.147619
 30
0.0
 10
127.855173
 20
174.377742
 30
0.0
 10
125.661335
 20
177.321230
 30
0.0
 10
126.857472
 20
177.321230
 30
0.0
 10
128.494581
 20
175.121880
 30
0.0
 10
130.131690
 20
177.321230
 30
0.0
 10
131.327827
 20
177.321230
 30
0.0
  0
SPLINE
  5
1bd
100
AcDbEntity
  8
0
 62
7
100
AcDbSpline
 70
8
 71
3
 72
8
 73
4
 74
0
 40
0
 40
0
 40
0
 40
0
 40
1
 40
1
 40
1
 40
1
 10
133.879954
 20
173.181603
 30
0.0
 10
133.879954
 20
172.678161
 30
0.0
 10
133.948856
 20
172.354779
 30
0.0
 10
134.086659
 20
172.211464
 30
0.0
  0
SPLINE
  5
1be
100
AcDbEntity
  8
0
 62
7
100
AcDbSpline
 70
8
 71
3
 72
8
 73
4
 74
0
 40
0
 40
0
 40
0
 40
0
 40
1
 40
1
 40
1
 40
1
 10
134.086659
 20
172.211464
 30
0.0
 10
134.224463
 20
172.068149
 30
0.0
 10
134.504661
 20
171.996489
 30
0.0
 10
134.927264
 20
171.996492
 30
0.0
  0
LWPOLYLINE
  5
1bf
100
AcDbEntity
  8
0
 62
7
100
AcDbPolyline
 90
6
 70
0
 10
133.879954
 20
179.074095
 30
0.0
 10
133.879954
 20
177.321230
 30
0.0
 10
135.969062
 20
177.321230
 30
0.0
 10
135.969062
 20
176.532992
 30
0.0
 10
133.879954
 20
176.532992
 30
0.0
 10
133.879954
 20
173.181603
 30
0.0
  0
SPLINE
  5
1c0
100
AcDbEntity
  8
0
 62
7
100
AcDbSpline
 70
8
 71
3
 72
8
 73
4
 74
0
 40
0
 40
0
 40
0
 40
0
 40
1
 40
1
 40
1
 40
1
 10
134.927264
 20
171.147619
 30
0.0
 10
134.144535
 20
171.147619
 30
0.0
 10
133.604344
 20
171.293691
 30
0.0
 10
133.306690
 20
171.585836
 30
0.0
  0
SPLINE
  5
1c1
100
AcDbEntity
  8
0
 62
7
100
AcDbSpline
 70
8
 71
3
 72
8
 73
4
 74
0
 40
0
 40
0
 40
0
 40
0
 40
1
 40
1
 40
1
 40
1
 10
133.306690
 20
171.585836
 30
0.0
 10
133.009033
 20
171.877979
 30
0.0
 10
132.860206
 20
172.409903
 30
0.0
 10
132.860206
 20
173.181603
 30
0.0
  0
LWPOLYLINE
  5
1c2
100
AcDbEntity
  8
0
 62
7
100
AcDbPolyline
 90
4
 70
0
 10
134.927264
 20
171.996492
 30
0.0
 10
135.969062
 20
171.996492
 30
0.0
 10
135.969062
 20
171.147619
 30
0.0
 10
134.927264
 20
171.147619
 30
0.0
  0
LWPOLYLINE
  5
1c3
100
AcDbEntity
  8
0
 62
7
100
AcDbPolyline
 90
7
 70
0
 10
132.860206
 20
173.181603
 30
0.0
 10
132.860206
 20
176.532992
 30
0.0
 10
132.116065
 20
176.532992
 30
0.0
 10
132.116065
 20
177.321230
 30
0.0
 10
132.860206
 20
177.321230
 30
0.0
 10
132.860206
 20
179.074095
 30
0.0
 10
133.879954
 20
179.074095
 30
0.0
  0
LWPOLYLINE
  5
1c4
100
AcDbEntity
  8
0
 62
7
100
AcDbPolyline
 90
5
 70
0
 10
137.947922
 20
172.547706
 30
0.0
 10
139.066891
 20
172.547706
 30
0.0
 10
139.066891
 20
171.147619
 30
0.0
 10
137.947922
 20
171.147619
 30
0.0
 10
137.947922
 20
172.547706
 30
0.0
  0
LWPOLYLINE
  5
1c5
100
AcDbEntity
  8
0
 62
7
100
AcDbPolyline
 90
7
 70
0
 10
137.947922
 20
179.377264
 30
0.0
 10
139.066891
 20
179.377264
 30
0.0
 10
139.066891
 20
175.766803
 30
0.0
 10
138.956646
 20
173.798964
 30
0.0
 10
138.063678
 20
173.798964
 30
0.0
 10
137.947922
 20
175.766803
 30
0.0
 10
137.947922
 20
179.377264
 30
0.0
  0
LWPOLYLINE
  5
1c6
100
AcDbEntity
  8
0
 62
7
100
AcDbPolyline
 90
5
 70
0
 10
142.467889
 20
172.547706
 30
0.0
 10
143.586855
 20
172.547706
 30
0.0
 10
143.586855
 20
171.147619
 30
0.0
 10
142.467889
 20
171.147619
 30
0.0
 10
142.467889
 20
172.547706
 30
0.0
  0
LWPOLYLINE
  5
1c7
100
AcDbEntity
  8
0
 62
7
100
AcDbPolyline
 90
7
 70
0
 10
142.467889
 20
179.377264
 30
0.0
 10
143.586855
 20
179.377264
 30
0.0
 10
143.586855
 20
175.766803
 30
0.0
 10
143.476613
 20
173.798964
 30
0.0
 10
142.583645
 20
173.798964
 30
0.0
 10
142.467889
 20
175.766803
 30
0.0
 10
142.467889
 20
179.377264
 30
0.0
  0
LWPOLYLINE
  5
1c8
100
AcDbEntity
  8
0
 62
7
100
AcDbPolyline
 90
5
 70
0
 10
146.987853
 20
172.547706
 30
0.0
 10
148.106821
 20
172.547706
 30
0.0
 10
148.106821
 20
171.147619
 30
0.0
 10
146.987853
 20
171.147619
 30
0.0
 10
146.987853
 20
172.547706
 30
0.0
  0
LWPOLYLINE
  5
1c9
100
AcDbEntity
  8
0
 62
7
100
AcDbPolyline
 90
7
 70
0
 10
146.987853
 20
179.377264
 30
0.0
 10
148.106821
 20
179.377264
 30
0.0
 10
148.106821
 20
175.766803
 30
0.0
 10
147.996577
 20
173.798964
 30
0.0
 10
147.103609
 20
173.798964
 30
0.0
 10
146.987853
 20
175.766803
 30
0.0
 10
146.987853
 20
179.377264
 30
0.0
  0
ENDSEC
  0
SECTION
  2
OBJECTS
  0
DICTIONARY
  5
C
330
0
100
AcDbDictionary
  3
ACAD_GROUP
350
D
  3
ACAD_MLINESTYLE
350
17
  0
DICTIONARY
  5
D
330
C
100
AcDbDictionary
  0
DICTIONARY
  5
1A
330
C
100
AcDbDictionary
  0
DICTIONARY
  5
17
330
C
100
AcDbDictionary
  3
STANDARD
350
18
  0
DICTIONARY
  5
19
330
C
100
AcDbDictionary
  0
ENDSEC
  0
EOF
