999
DXF created by Inkscape
  0
SECTION
  2
HEADER
  9
$ACADVER
  1
AC1014
  9
$HANDSEED
  5
FFFF
  0
ENDSEC
  0
SECTION
  2
TABLES
  0
TABLE
  2
VPORT
  5
8
330
0
100
AcDbSymbolTable
 70
     4
  0
VPORT
  5
2E
330
8
100
AcDbSymbolTableRecord
100
AcDbViewportTableRecord
  2
*ACTIVE
 70
     0
 10
0.0
 20
0.0
 11
1.0
 21
1.0
 12
4.25
 22
5.5
 13
0.0
 23
0.0
 14
10.0
 24
10.0
 15
10.0
 25
10.0
 16
0.0
 26
0.0
 36
1.0
 17
0.0
 27
0.0
 37
0.0
 40
11
 41
1.24
 42
50.0
 43
0.0
 44
0.0
 50
0.0
 51
0.0
 71
     0
 72
   100
 73
     1
 74
     3
 75
     0
 76
     0
 77
     0
 78
     0
  0
ENDTAB
  0
TABLE
  2
LTYPE
  5
5
330
0
100
AcDbSymbolTable
 70
     1
  0
LTYPE
  5
14
330
5
100
AcDbSymbolTableRecord
100
AcDbLinetypeTableRecord
  2
BYBLOCK
 70
     0
  3

 72
    65
 73
     0
 40
0.0
  0
LTYPE
  5
15
330
5
100
AcDbSymbolTableRecord
100
AcDbLinetypeTableRecord
  2
BYLAYER
 70
     0
  3

 72
    65
 73
     0
 40
0.0
  0
LTYPE
  5
16
330
5
100
AcDbSymbolTableRecord
100
AcDbLinetypeTableRecord
  2
CONTINUOUS
 70
     0
  3
Solid line
 72
    65
 73
     0
 40
0.0
  0
ENDTAB
  0
TABLE
  2
LAYER
  5
2
330
0
100
AcDbSymbolTable
 70
1
  0
LAYER
  5
10
330
2
100
AcDbSymbolTableRecord
100
AcDbLayerTableRecord
  2
0
 70
     0
 62
     7
  6
CONTINUOUS
  0
ENDTAB
  0
TABLE
  2
STYLE
  5
3
330
0
100
AcDbSymbolTable
 70
     1
  0
STYLE
  5
11
330
3
100
AcDbSymbolTableRecord
100
AcDbTextStyleTableRecord
  2
STANDARD
 70
     0
 40
0.0
 41
1.0
 50
0.0
 71
     0
 42
2.5
  3
txt
  4

  0
ENDTAB
  0
TABLE
  2
VIEW
  5
6
330
0
100
AcDbSymbolTable
 70
     0
  0
ENDTAB
  0
TABLE
  2
UCS
  5
7
330
0
100
AcDbSymbolTable
 70
     0
  0
ENDTAB
  0
TABLE
  2
APPID
  5
9
330
0
100
AcDbSymbolTable
 70
     2
  0
APPID
  5
12
330
9
100
AcDbSymbolTableRecord
100
AcDbRegAppTableRecord
  2
ACAD
 70
     0
  0
ENDTAB
  0
TABLE
  2
DIMSTYLE
  5
A
330
0
100
AcDbSymbolTable
 70
     1
  0
DIMSTYLE
105
27
330
A
100
AcDbSymbolTableRecord
100
AcDbDimStyleTableRecord
  2
ISO-25
 70
     0
  3

  4

  5

  6

  7

 40
1.0
 41
2.5
 42
0.625
 43
3.75
 44
1.25
 45
0.0
 46
0.0
 47
0.0
 48
0.0
140
2.5
141
2.5
142
0.0
143
0.03937007874016
144
1.0
145
0.0
146
1.0
147
0.625
 71
     0
 72
     0
 73
     0
 74
     0
 75
     0
 76
     0
 77
     1
 78
     8
170
     0
171
     3
172
     1
173
     0
174
     0
175
     0
176
     0
177
     0
178
     0
270
     2
271
     2
272
     2
273
     2
274
     3
340
11
275
     0
280
     0
281
     0
282
     0
283
     0
284
     8
285
     0
286
     0
287
     3
288
     0
  0
ENDTAB
  0
TABLE
  2
BLOCK_RECORD
  5
1
330
0
100
AcDbSymbolTable
 70
     1
  0
BLOCK_RECORD
  5
1F
330
1
100
AcDbSymbolTableRecord
100
AcDbBlockTableRecord
  2
*MODEL_SPACE
  0
BLOCK_RECORD
  5
1B
330
1
100
AcDbSymbolTableRecord
100
AcDbBlockTableRecord
  2
*PAPER_SPACE
  0
ENDTAB
  0
ENDSEC
  0
SECTION
  2
BLOCKS
  0
BLOCK
  5
20
330
1F
100
AcDbEntity
  8
0
100
AcDbBlockBegin
  2
*MODEL_SPACE
 70
     0
 10
0.0
 20
0.0
 30
0.0
  3
*MODEL_SPACE
  1

  0
ENDBLK
  5
21
330
1F
100
AcDbEntity
  8
0
100
AcDbBlockEnd
  0
BLOCK
  5
1C
330
1B
100
AcDbEntity
 67
     1
  8
0
100
AcDbBlockBegin
  2
*PAPER_SPACE
  1

  0
ENDBLK
  5
1D
330
1B
100
AcDbEntity
 67
     1
  8
0
100
AcDbBlockEnd
  0
ENDSEC
  0
SECTION
  2
ENTITIES
  0
LINE
  5
100
100
AcDbEntity
  8
0
100
AcDbLine
 10
20.340159
 20
152.400007
 30
0.0
 11
20.340159
 21
270.933340
 31
0.0
  0
LINE
  5
101
100
AcDbEntity
  8
0
100
AcDbLine
 10
20.340159
 20
270.933340
 30
0.0
 11
104.019048
 21
270.933340
 31
0.0
  0
LINE
  5
102
100
AcDbEntity
  8
0
100
AcDbLine
 10
104.019048
 20
270.933340
 30
0.0
 11
187.697937
 21
270.933340
 31
0.0
  0
LINE
  5
103
100
AcDbEntity
  8
0
100
AcDbLine
 10
187.697937
 20
270.933340
 30
0.0
 11
187.697937
 21
152.400007
 31
0.0
  0
LINE
  5
104
100
AcDbEntity
  8
0
100
AcDbLine
 10
187.697937
 20
152.400007
 30
0.0
 11
187.697937
 21
33.866676
 31
0.0
  0
LINE
  5
105
100
AcDbEntity
  8
0
100
AcDbLine
 10
187.697937
 20
33.866676
 30
0.0
 11
104.019048
 21
33.866676
 31
0.0
  0
LINE
  5
106
100
AcDbEntity
  8
0
100
AcDbLine
 10
104.019048
 20
33.866676
 30
0.0
 11
20.340159
 21
33.866676
 31
0.0
  0
LINE
  5
107
100
AcDbEntity
  8
0
100
AcDbLine
 10
20.340159
 20
33.866676
 30
0.0
 11
20.340159
 21
152.400007
 31
0.0
  0
LINE
  5
108
100
AcDbEntity
  8
0
100
AcDbLine
 10
20.340159
 20
152.400007
 30
0.0
 11
20.340159
 21
152.400007
 31
0.0
  0
LINE
  5
109
100
AcDbEntity
  8
0
100
AcDbLine
 10
187.415715
 20
152.400007
 30
0.0
 11
187.415715
 21
270.651118
 31
0.0
  0
LINE
  5
10a
100
AcDbEntity
  8
0
100
AcDbLine
 10
187.415715
 20
270.651118
 30
0.0
 11
104.019048
 21
270.651118
 31
0.0
  0
LINE
  5
10b
100
AcDbEntity
  8
0
100
AcDbLine
 10
104.019048
 20
270.651118
 30
0.0
 11
20.622381
 21
270.651118
 31
0.0
  0
LINE
  5
10c
100
AcDbEntity
  8
0
100
AcDbLine
 10
20.622381
 20
270.651118
 30
0.0
 11
20.622381
 21
152.400007
 31
0.0
  0
LINE
  5
10d
100
AcDbEntity
  8
0
100
AcDbLine
 10
20.622381
 20
152.400007
 30
0.0
 11
20.622381
 21
34.148896
 31
0.0
  0
LINE
  5
10e
100
AcDbEntity
  8
0
100
AcDbLine
 10
20.622381
 20
34.148896
 30
0.0
 11
104.019048
 21
34.148896
 31
0.0
  0
LINE
  5
10f
100
AcDbEntity
  8
0
100
AcDbLine
 10
104.019048
 20
34.148896
 30
0.0
 11
187.415715
 21
34.148896
 31
0.0
  0
LINE
  5
110
100
AcDbEntity
  8
0
100
AcDbLine
 10
187.415715
 20
34.148896
 30
0.0
 11
187.415715
 21
152.400007
 31
0.0
  0
LINE
  5
111
100
AcDbEntity
  8
0
100
AcDbLine
 10
187.415715
 20
152.400007
 30
0.0
 11
187.415715
 21
152.400007
 31
0.0
  0
SPLINE
  5
112
100
AcDbEntity
  8
0
100
AcDbSpline
 70
8
 71
3
 72
8
 73
4
 74
0
 40
0
 40
0
 40
0
 40
0
 40
1
 40
1
 40
1
 40
1
 10
99.893730
 20
87.534957
 30
0.0
 10
97.062736
 20
89.760254
 30
0.0
 10
91.968086
 20
94.951831
 30
0.0
 10
89.097177
 20
98.536914
 30
0.0
  0
SPLINE
  5
113
100
AcDbEntity
  8
0
100
AcDbSpline
 70
8
 71
3
 72
8
 73
4
 74
0
 40
0
 40
0
 40
0
 40
0
 40
1
 40
1
 40
1
 40
1
 10
89.097177
 20
98.536914
 30
0.0
 10
80.170218
 20
109.684573
 30
0.0
 10
75.318826
 20
122.063212
 30
0.0
 10
74.955620
 20
134.620007
 30
0.0
  0
LINE
  5
114
100
AcDbEntity
  8
0
100
AcDbLine
 10
74.955620
 20
134.620007
 30
0.0
 11
74.837253
 21
138.712229
 31
0.0
  0
LINE
  5
115
100
AcDbEntity
  8
0
100
AcDbLine
 10
74.837253
 20
138.712229
 30
0.0
 11
75.243334
 21
134.620007
 31
0.0
  0
SPLINE
  5
116
100
AcDbEntity
  8
0
100
AcDbSpline
 70
8
 71
3
 72
8
 73
4
 74
0
 40
0
 40
0
 40
0
 40
0
 40
1
 40
1
 40
1
 40
1
 10
75.243334
 20
134.620007
 30
0.0
 10
77.057450
 20
116.338459
 30
0.0
 10
84.327540
 20
102.460297
 30
0.0
 10
99.080159
 20
89.116931
 30
0.0
  0
SPLINE
  5
117
100
AcDbEntity
  8
0
100
AcDbSpline
 70
8
 71
3
 72
8
 73
4
 74
0
 40
0
 40
0
 40
0
 40
0
 40
1
 40
1
 40
1
 40
1
 10
99.080159
 20
89.116931
 30
0.0
 10
101.923077
 20
86.545588
 30
0.0
 10
102.446015
 20
85.528738
 30
0.0
 10
99.893730
 20
87.534957
 30
0.0
  0
LINE
  5
118
100
AcDbEntity
  8
0
100
AcDbLine
 10
99.893730
 20
87.534957
 30
0.0
 11
99.893730
 21
87.534957
 31
0.0
  0
SPLINE
  5
119
100
AcDbEntity
  8
0
100
AcDbSpline
 70
8
 71
3
 72
8
 73
4
 74
0
 40
0
 40
0
 40
0
 40
0
 40
1
 40
1
 40
1
 40
1
 10
100.288197
 20
88.829451
 30
0.0
 10
91.055543
 20
99.346736
 30
0.0
 10
86.898057
 20
106.564372
 30
0.0
 10
84.277166
 20
116.625518
 30
0.0
  0
SPLINE
  5
11a
100
AcDbEntity
  8
0
100
AcDbSpline
 70
8
 71
3
 72
8
 73
4
 74
0
 40
0
 40
0
 40
0
 40
0
 40
1
 40
1
 40
1
 40
1
 10
84.277166
 20
116.625518
 30
0.0
 10
83.041507
 20
121.368996
 30
0.0
 10
82.454663
 20
125.315524
 30
0.0
 10
82.293844
 20
129.963340
 30
0.0
  0
LINE
  5
11b
100
AcDbEntity
  8
0
100
AcDbLine
 10
82.293844
 20
129.963340
 30
0.0
 11
82.166897
 21
133.632229
 31
0.0
  0
LINE
  5
11c
100
AcDbEntity
  8
0
100
AcDbLine
 10
82.166897
 20
133.632229
 30
0.0
 11
82.569358
 21
129.963340
 31
0.0
  0
SPLINE
  5
11d
100
AcDbEntity
  8
0
100
AcDbSpline
 70
8
 71
3
 72
8
 73
4
 74
0
 40
0
 40
0
 40
0
 40
0
 40
1
 40
1
 40
1
 40
1
 10
82.569358
 20
129.963340
 30
0.0
 10
83.723268
 20
119.444131
 30
0.0
 10
85.449258
 20
113.053880
 30
0.0
 10
89.113419
 20
105.734783
 30
0.0
  0
SPLINE
  5
11e
100
AcDbEntity
  8
0
100
AcDbSpline
 70
8
 71
3
 72
8
 73
4
 74
0
 40
0
 40
0
 40
0
 40
0
 40
1
 40
1
 40
1
 40
1
 10
89.113419
 20
105.734783
 30
0.0
 10
91.564133
 20
100.839528
 30
0.0
 10
93.306652
 20
98.314057
 30
0.0
 10
99.099700
 20
91.261439
 30
0.0
  0
SPLINE
  5
11f
100
AcDbEntity
  8
0
100
AcDbSpline
 70
8
 71
3
 72
8
 73
4
 74
0
 40
0
 40
0
 40
0
 40
0
 40
1
 40
1
 40
1
 40
1
 10
99.099700
 20
91.261439
 30
0.0
 10
102.373534
 20
87.275784
 30
0.0
 10
102.627142
 20
86.924451
 30
0.0
 10
102.230324
 20
86.924451
 30
0.0
  0
SPLINE
  5
120
100
AcDbEntity
  8
0
100
AcDbSpline
 70
8
 71
3
 72
8
 73
4
 74
0
 40
0
 40
0
 40
0
 40
0
 40
1
 40
1
 40
1
 40
1
 10
102.230324
 20
86.924451
 30
0.0
 10
102.081925
 20
86.924451
 30
0.0
 10
101.207968
 20
87.781701
 30
0.0
 10
100.288197
 20
88.829451
 30
0.0
  0
LINE
  5
121
100
AcDbEntity
  8
0
100
AcDbLine
 10
100.288197
 20
88.829451
 30
0.0
 11
100.288197
 21
88.829451
 31
0.0
  0
SPLINE
  5
122
100
AcDbEntity
  8
0
100
AcDbSpline
 70
8
 71
3
 72
8
 73
4
 74
0
 40
0
 40
0
 40
0
 40
0
 40
1
 40
1
 40
1
 40
1
 10
105.250161
 20
95.860256
 30
0.0
 10
101.222353
 20
98.611178
 30
0.0
 10
97.203184
 20
102.418598
 30
0.0
 10
94.180756
 20
106.346471
 30
0.0
  0
SPLINE
  5
123
100
AcDbEntity
  8
0
100
AcDbSpline
 70
8
 71
3
 72
8
 73
4
 74
0
 40
0
 40
0
 40
0
 40
0
 40
1
 40
1
 40
1
 40
1
 10
94.180756
 20
106.346471
 30
0.0
 10
88.503924
 20
113.723938
 30
0.0
 10
83.669423
 20
125.696493
 30
0.0
 10
83.162806
 20
133.632229
 30
0.0
  0
LINE
  5
124
100
AcDbEntity
  8
0
100
AcDbLine
 10
83.162806
 20
133.632229
 30
0.0
 11
83.018670
 21
135.890007
 31
0.0
  0
LINE
  5
125
100
AcDbEntity
  8
0
100
AcDbLine
 10
83.018670
 20
135.890007
 30
0.0
 11
83.452391
 21
133.632229
 31
0.0
  0
SPLINE
  5
126
100
AcDbEntity
  8
0
100
AcDbSpline
 70
8
 71
3
 72
8
 73
4
 74
0
 40
0
 40
0
 40
0
 40
0
 40
1
 40
1
 40
1
 40
1
 10
83.452391
 20
133.632229
 30
0.0
 10
86.542474
 20
117.546550
 30
0.0
 10
93.553472
 20
105.369790
 30
0.0
 10
104.343798
 20
97.347866
 30
0.0
  0
SPLINE
  5
127
100
AcDbEntity
  8
0
100
AcDbSpline
 70
8
 71
3
 72
8
 73
4
 74
0
 40
0
 40
0
 40
0
 40
0
 40
1
 40
1
 40
1
 40
1
 10
104.343798
 20
97.347866
 30
0.0
 10
105.764189
 20
96.291895
 30
0.0
 10
107.009932
 20
95.292639
 30
0.0
 10
107.112119
 20
95.127297
 30
0.0
  0
SPLINE
  5
128
100
AcDbEntity
  8
0
100
AcDbSpline
 70
8
 71
3
 72
8
 73
4
 74
0
 40
0
 40
0
 40
0
 40
0
 40
1
 40
1
 40
1
 40
1
 10
107.112119
 20
95.127297
 30
0.0
 10
107.467538
 20
94.552218
 30
0.0
 10
106.754199
 20
94.833024
 30
0.0
 10
105.250161
 20
95.860256
 30
0.0
  0
LINE
  5
129
100
AcDbEntity
  8
0
100
AcDbLine
 10
105.250161
 20
95.860256
 30
0.0
 11
105.250161
 21
95.860256
 31
0.0
  0
SPLINE
  5
12a
100
AcDbEntity
  8
0
100
AcDbSpline
 70
8
 71
3
 72
8
 73
4
 74
0
 40
0
 40
0
 40
0
 40
0
 40
1
 40
1
 40
1
 40
1
 10
106.650197
 20
96.167229
 30
0.0
 10
105.542797
 20
97.360916
 30
0.0
 10
102.455895
 20
102.293277
 30
0.0
 10
100.424065
 20
106.115563
 30
0.0
  0
SPLINE
  5
12b
100
AcDbEntity
  8
0
100
AcDbSpline
 70
8
 71
3
 72
8
 73
4
 74
0
 40
0
 40
0
 40
0
 40
0
 40
1
 40
1
 40
1
 40
1
 10
100.424065
 20
106.115563
 30
0.0
 10
97.351994
 20
111.894748
 30
0.0
 10
94.770775
 20
118.959589
 30
0.0
 10
93.576704
 20
124.856907
 30
0.0
  0
SPLINE
  5
12c
100
AcDbEntity
  8
0
100
AcDbSpline
 70
8
 71
3
 72
8
 73
4
 74
0
 40
0
 40
0
 40
0
 40
0
 40
1
 40
1
 40
1
 40
1
 10
93.576704
 20
124.856907
 30
0.0
 10
93.188717
 20
126.773117
 30
0.0
 10
92.875131
 20
128.515470
 30
0.0
 10
92.879853
 20
128.728799
 30
0.0
  0
SPLINE
  5
12d
100
AcDbEntity
  8
0
100
AcDbSpline
 70
8
 71
3
 72
8
 73
4
 74
0
 40
0
 40
0
 40
0
 40
0
 40
1
 40
1
 40
1
 40
1
 10
92.879853
 20
128.728799
 30
0.0
 10
92.900963
 20
129.682944
 30
0.0
 10
93.451593
 20
128.010109
 30
0.0
 10
94.379906
 20
124.171576
 30
0.0
  0
SPLINE
  5
12e
100
AcDbEntity
  8
0
100
AcDbSpline
 70
8
 71
3
 72
8
 73
4
 74
0
 40
0
 40
0
 40
0
 40
0
 40
1
 40
1
 40
1
 40
1
 10
94.379906
 20
124.171576
 30
0.0
 10
96.600086
 20
114.991231
 30
0.0
 10
100.434927
 20
106.430198
 30
0.0
 10
106.007673
 20
98.213340
 30
0.0
  0
SPLINE
  5
12f
100
AcDbEntity
  8
0
100
AcDbSpline
 70
8
 71
3
 72
8
 73
4
 74
0
 40
0
 40
0
 40
0
 40
0
 40
1
 40
1
 40
1
 40
1
 10
106.007673
 20
98.213340
 30
0.0
 10
106.797224
 20
97.049174
 30
0.0
 10
107.537524
 20
95.937924
 30
0.0
 10
107.652789
 20
95.743896
 30
0.0
  0
SPLINE
  5
130
100
AcDbEntity
  8
0
100
AcDbSpline
 70
8
 71
3
 72
8
 73
4
 74
0
 40
0
 40
0
 40
0
 40
0
 40
1
 40
1
 40
1
 40
1
 10
107.652789
 20
95.743896
 30
0.0
 10
108.033727
 20
95.102650
 30
0.0
 10
107.382869
 20
95.377470
 30
0.0
 10
106.650197
 20
96.167229
 30
0.0
  0
LINE
  5
131
100
AcDbEntity
  8
0
100
AcDbLine
 10
106.650197
 20
96.167229
 30
0.0
 11
106.650197
 21
96.167229
 31
0.0
  0
SPLINE
  5
132
100
AcDbEntity
  8
0
100
AcDbSpline
 70
8
 71
3
 72
8
 73
4
 74
0
 40
0
 40
0
 40
0
 40
0
 40
1
 40
1
 40
1
 40
1
 10
124.444839
 20
96.891914
 30
0.0
 10
120.506380
 20
99.136342
 30
0.0
 10
115.899173
 20
102.895695
 30
0.0
 10
112.622158
 20
106.538896
 30
0.0
  0
SPLINE
  5
133
100
AcDbEntity
  8
0
100
AcDbSpline
 70
8
 71
3
 72
8
 73
4
 74
0
 40
0
 40
0
 40
0
 40
0
 40
1
 40
1
 40
1
 40
1
 10
112.622158
 20
106.538896
 30
0.0
 10
111.924056
 20
107.315007
 30
0.0
 10
110.308215
 20
108.757247
 30
0.0
 10
109.031405
 20
109.743876
 30
0.0
  0
SPLINE
  5
134
100
AcDbEntity
  8
0
100
AcDbSpline
 70
8
 71
3
 72
8
 73
4
 74
0
 40
0
 40
0
 40
0
 40
0
 40
1
 40
1
 40
1
 40
1
 10
109.031405
 20
109.743876
 30
0.0
 10
105.943180
 20
112.130232
 30
0.0
 10
100.525625
 20
117.783764
 30
0.0
 10
98.159982
 20
121.088829
 30
0.0
  0
SPLINE
  5
135
100
AcDbEntity
  8
0
100
AcDbSpline
 70
8
 71
3
 72
8
 73
4
 74
0
 40
0
 40
0
 40
0
 40
0
 40
1
 40
1
 40
1
 40
1
 10
98.159982
 20
121.088829
 30
0.0
 10
96.073962
 20
124.003227
 30
0.0
 10
93.715329
 20
128.397902
 30
0.0
 10
93.722416
 20
129.357028
 30
0.0
  0
SPLINE
  5
136
100
AcDbEntity
  8
0
100
AcDbSpline
 70
8
 71
3
 72
8
 73
4
 74
0
 40
0
 40
0
 40
0
 40
0
 40
1
 40
1
 40
1
 40
1
 10
93.722416
 20
129.357028
 30
0.0
 10
93.725018
 20
129.709202
 30
0.0
 10
94.346062
 20
128.808131
 30
0.0
 10
95.204082
 20
127.207282
 30
0.0
  0
SPLINE
  5
137
100
AcDbEntity
  8
0
100
AcDbSpline
 70
8
 71
3
 72
8
 73
4
 74
0
 40
0
 40
0
 40
0
 40
0
 40
1
 40
1
 40
1
 40
1
 10
95.204082
 20
127.207282
 30
0.0
 10
98.268003
 20
121.490781
 30
0.0
 10
103.098222
 20
115.618501
 30
0.0
 10
108.258387
 20
111.336674
 30
0.0
  0
SPLINE
  5
138
100
AcDbEntity
  8
0
100
AcDbSpline
 70
8
 71
3
 72
8
 73
4
 74
0
 40
0
 40
0
 40
0
 40
0
 40
1
 40
1
 40
1
 40
1
 10
108.258387
 20
111.336674
 30
0.0
 10
109.941955
 20
109.939674
 30
0.0
 10
112.788339
 20
107.330535
 30
0.0
 10
114.583678
 20
105.538587
 30
0.0
  0
SPLINE
  5
139
100
AcDbEntity
  8
0
100
AcDbSpline
 70
8
 71
3
 72
8
 73
4
 74
0
 40
0
 40
0
 40
0
 40
0
 40
1
 40
1
 40
1
 40
1
 10
114.583678
 20
105.538587
 30
0.0
 10
118.090163
 20
102.038736
 30
0.0
 10
120.562353
 20
100.080613
 30
0.0
 10
124.691826
 20
97.532338
 30
0.0
  0
SPLINE
  5
13a
100
AcDbEntity
  8
0
100
AcDbSpline
 70
8
 71
3
 72
8
 73
4
 74
0
 40
0
 40
0
 40
0
 40
0
 40
1
 40
1
 40
1
 40
1
 10
124.691826
 20
97.532338
 30
0.0
 10
126.127631
 20
96.646310
 30
0.0
 10
127.302381
 20
95.865570
 30
0.0
 10
127.302381
 20
95.797360
 30
0.0
  0
SPLINE
  5
13b
100
AcDbEntity
  8
0
100
AcDbSpline
 70
8
 71
3
 72
8
 73
4
 74
0
 40
0
 40
0
 40
0
 40
0
 40
1
 40
1
 40
1
 40
1
 10
127.302381
 20
95.797360
 30
0.0
 10
127.302381
 20
95.438904
 30
0.0
 10
126.363417
 20
95.798565
 30
0.0
 10
124.444839
 20
96.891914
 30
0.0
  0
LINE
  5
13c
100
AcDbEntity
  8
0
100
AcDbLine
 10
124.444839
 20
96.891914
 30
0.0
 11
124.444839
 21
96.891914
 31
0.0
  0
SPLINE
  5
13d
100
AcDbEntity
  8
0
100
AcDbSpline
 70
8
 71
3
 72
8
 73
4
 74
0
 40
0
 40
0
 40
0
 40
0
 40
1
 40
1
 40
1
 40
1
 10
123.493623
 20
99.996759
 30
0.0
 10
117.036573
 20
106.610117
 30
0.0
 10
112.859687
 20
112.459049
 30
0.0
 10
108.946095
 20
120.367785
 30
0.0
  0
SPLINE
  5
13e
100
AcDbEntity
  8
0
100
AcDbSpline
 70
8
 71
3
 72
8
 73
4
 74
0
 40
0
 40
0
 40
0
 40
0
 40
1
 40
1
 40
1
 40
1
 10
108.946095
 20
120.367785
 30
0.0
 10
105.501575
 20
127.328607
 30
0.0
 10
105.452618
 20
128.387612
 30
0.0
 10
108.880862
 20
121.778896
 30
0.0
  0
SPLINE
  5
13f
100
AcDbEntity
  8
0
100
AcDbSpline
 70
8
 71
3
 72
8
 73
4
 74
0
 40
0
 40
0
 40
0
 40
0
 40
1
 40
1
 40
1
 40
1
 10
108.880862
 20
121.778896
 30
0.0
 10
113.601266
 20
112.679247
 30
0.0
 10
116.720922
 20
108.205531
 30
0.0
 10
123.050610
 20
101.458896
 30
0.0
  0
SPLINE
  5
140
100
AcDbEntity
  8
0
100
AcDbSpline
 70
8
 71
3
 72
8
 73
4
 74
0
 40
0
 40
0
 40
0
 40
0
 40
1
 40
1
 40
1
 40
1
 10
123.050610
 20
101.458896
 30
0.0
 10
123.924387
 20
100.527563
 30
0.0
 10
125.384820
 20
98.971813
 30
0.0
 10
126.296019
 20
98.001674
 30
0.0
  0
SPLINE
  5
141
100
AcDbEntity
  8
0
100
AcDbSpline
 70
8
 71
3
 72
8
 73
4
 74
0
 40
0
 40
0
 40
0
 40
0
 40
1
 40
1
 40
1
 40
1
 10
126.296019
 20
98.001674
 30
0.0
 10
127.207219
 20
97.031535
 30
0.0
 10
127.775222
 20
96.237785
 30
0.0
 10
127.558250
 20
96.237785
 30
0.0
  0
SPLINE
  5
142
100
AcDbEntity
  8
0
100
AcDbSpline
 70
8
 71
3
 72
8
 73
4
 74
0
 40
0
 40
0
 40
0
 40
0
 40
1
 40
1
 40
1
 40
1
 10
127.558250
 20
96.237785
 30
0.0
 10
127.341277
 20
96.237785
 30
0.0
 10
125.512195
 20
97.929323
 30
0.0
 10
123.493623
 20
99.996759
 30
0.0
  0
LINE
  5
143
100
AcDbEntity
  8
0
100
AcDbLine
 10
123.493623
 20
99.996759
 30
0.0
 11
123.493623
 21
99.996759
 31
0.0
  0
SPLINE
  5
144
100
AcDbEntity
  8
0
100
AcDbSpline
 70
8
 71
3
 72
8
 73
4
 74
0
 40
0
 40
0
 40
0
 40
0
 40
1
 40
1
 40
1
 40
1
 10
137.744604
 20
98.649396
 30
0.0
 10
125.408984
 20
103.122968
 30
0.0
 10
113.705716
 20
113.324311
 30
0.0
 10
108.204923
 20
124.398141
 30
0.0
  0
SPLINE
  5
145
100
AcDbEntity
  8
0
100
AcDbSpline
 70
8
 71
3
 72
8
 73
4
 74
0
 40
0
 40
0
 40
0
 40
0
 40
1
 40
1
 40
1
 40
1
 10
108.204923
 20
124.398141
 30
0.0
 10
107.335120
 20
126.149169
 30
0.0
 10
106.696067
 20
127.654435
 30
0.0
 10
106.784809
 20
127.743174
 30
0.0
  0
SPLINE
  5
146
100
AcDbEntity
  8
0
100
AcDbSpline
 70
8
 71
3
 72
8
 73
4
 74
0
 40
0
 40
0
 40
0
 40
0
 40
1
 40
1
 40
1
 40
1
 10
106.784809
 20
127.743174
 30
0.0
 10
106.873548
 20
127.831916
 30
0.0
 10
107.398193
 20
127.006893
 30
0.0
 10
107.950683
 20
125.909791
 30
0.0
  0
SPLINE
  5
147
100
AcDbEntity
  8
0
100
AcDbSpline
 70
8
 71
3
 72
8
 73
4
 74
0
 40
0
 40
0
 40
0
 40
0
 40
1
 40
1
 40
1
 40
1
 10
107.950683
 20
125.909791
 30
0.0
 10
108.503175
 20
124.812692
 30
0.0
 10
109.971530
 20
122.406719
 30
0.0
 10
111.213697
 20
120.563187
 30
0.0
  0
SPLINE
  5
148
100
AcDbEntity
  8
0
100
AcDbSpline
 70
8
 71
3
 72
8
 73
4
 74
0
 40
0
 40
0
 40
0
 40
0
 40
1
 40
1
 40
1
 40
1
 10
111.213697
 20
120.563187
 30
0.0
 10
117.748346
 20
110.864948
 30
0.0
 10
126.938896
 20
103.532086
 30
0.0
 10
137.810251
 20
99.342602
 30
0.0
  0
SPLINE
  5
149
100
AcDbEntity
  8
0
100
AcDbSpline
 70
8
 71
3
 72
8
 73
4
 74
0
 40
0
 40
0
 40
0
 40
0
 40
1
 40
1
 40
1
 40
1
 10
137.810251
 20
99.342602
 30
0.0
 10
140.583452
 20
98.273897
 30
0.0
 10
141.732663
 20
97.627230
 30
0.0
 10
140.795149
 20
97.662987
 30
0.0
  0
SPLINE
  5
14a
100
AcDbEntity
  8
0
100
AcDbSpline
 70
8
 71
3
 72
8
 73
4
 74
0
 40
0
 40
0
 40
0
 40
0
 40
1
 40
1
 40
1
 40
1
 10
140.795149
 20
97.662987
 30
0.0
 10
140.591961
 20
97.670737
 30
0.0
 10
139.219215
 20
98.114619
 30
0.0
 10
137.744604
 20
98.649396
 30
0.0
  0
LINE
  5
14b
100
AcDbEntity
  8
0
100
AcDbLine
 10
137.744604
 20
98.649396
 30
0.0
 11
137.744604
 21
98.649396
 31
0.0
  0
SPLINE
  5
14c
100
AcDbEntity
  8
0
100
AcDbSpline
 70
8
 71
3
 72
8
 73
4
 74
0
 40
0
 40
0
 40
0
 40
0
 40
1
 40
1
 40
1
 40
1
 10
140.002381
 20
99.045557
 30
0.0
 10
137.612044
 20
100.285314
 30
0.0
 10
132.454901
 20
104.008681
 30
0.0
 10
129.269651
 20
106.794400
 30
0.0
  0
SPLINE
  5
14d
100
AcDbEntity
  8
0
100
AcDbSpline
 70
8
 71
3
 72
8
 73
4
 74
0
 40
0
 40
0
 40
0
 40
0
 40
1
 40
1
 40
1
 40
1
 10
129.269651
 20
106.794400
 30
0.0
 10
118.783001
 20
115.965694
 30
0.0
 10
112.429874
 20
128.481849
 30
0.0
 10
111.349302
 20
142.098896
 30
0.0
  0
SPLINE
  5
14e
100
AcDbEntity
  8
0
100
AcDbSpline
 70
8
 71
3
 72
8
 73
4
 74
0
 40
0
 40
0
 40
0
 40
0
 40
1
 40
1
 40
1
 40
1
 10
111.349302
 20
142.098896
 30
0.0
 10
111.238442
 20
143.495896
 30
0.0
 10
111.234053
 20
144.557291
 30
0.0
 10
111.339551
 20
144.457554
 30
0.0
  0
SPLINE
  5
14f
100
AcDbEntity
  8
0
100
AcDbSpline
 70
8
 71
3
 72
8
 73
4
 74
0
 40
0
 40
0
 40
0
 40
0
 40
1
 40
1
 40
1
 40
1
 10
111.339551
 20
144.457554
 30
0.0
 10
111.445046
 20
144.357817
 30
0.0
 10
111.718993
 20
142.843336
 30
0.0
 10
111.948321
 20
141.092040
 30
0.0
  0
SPLINE
  5
150
100
AcDbEntity
  8
0
100
AcDbSpline
 70
8
 71
3
 72
8
 73
4
 74
0
 40
0
 40
0
 40
0
 40
0
 40
1
 40
1
 40
1
 40
1
 10
111.948321
 20
141.092040
 30
0.0
 10
112.811735
 20
134.498479
 30
0.0
 10
114.184128
 20
129.797961
 30
0.0
 10
116.880612
 20
124.198686
 30
0.0
  0
SPLINE
  5
151
100
AcDbEntity
  8
0
100
AcDbSpline
 70
8
 71
3
 72
8
 73
4
 74
0
 40
0
 40
0
 40
0
 40
0
 40
1
 40
1
 40
1
 40
1
 10
116.880612
 20
124.198686
 30
0.0
 10
121.376519
 20
114.862899
 30
0.0
 10
127.965113
 20
107.703856
 30
0.0
 10
138.356888
 20
100.862958
 30
0.0
  0
SPLINE
  5
152
100
AcDbEntity
  8
0
100
AcDbSpline
 70
8
 71
3
 72
8
 73
4
 74
0
 40
0
 40
0
 40
0
 40
0
 40
1
 40
1
 40
1
 40
1
 10
138.356888
 20
100.862958
 30
0.0
 10
140.348465
 20
99.551906
 30
0.0
 10
141.977937
 20
98.419402
 30
0.0
 10
141.977937
 20
98.346284
 30
0.0
  0
SPLINE
  5
153
100
AcDbEntity
  8
0
100
AcDbSpline
 70
8
 71
3
 72
8
 73
4
 74
0
 40
0
 40
0
 40
0
 40
0
 40
1
 40
1
 40
1
 40
1
 10
141.977937
 20
98.346284
 30
0.0
 10
141.977937
 20
98.092123
 30
0.0
 10
141.545629
 20
98.245144
 30
0.0
 10
140.002381
 20
99.045557
 30
0.0
  0
LINE
  5
154
100
AcDbEntity
  8
0
100
AcDbLine
 10
140.002381
 20
99.045557
 30
0.0
 11
140.002381
 21
99.045557
 31
0.0
  0
SPLINE
  5
155
100
AcDbEntity
  8
0
100
AcDbSpline
 70
8
 71
3
 72
8
 73
4
 74
0
 40
0
 40
0
 40
0
 40
0
 40
1
 40
1
 40
1
 40
1
 10
96.903715
 20
105.903896
 30
0.0
 10
95.050999
 20
107.927059
 30
0.0
 10
91.861420
 20
113.499501
 30
0.0
 10
89.799628
 20
118.315273
 30
0.0
  0
SPLINE
  5
156
100
AcDbEntity
  8
0
100
AcDbSpline
 70
8
 71
3
 72
8
 73
4
 74
0
 40
0
 40
0
 40
0
 40
0
 40
1
 40
1
 40
1
 40
1
 10
89.799628
 20
118.315273
 30
0.0
 10
86.307306
 20
126.472370
 30
0.0
 10
84.423078
 20
134.331409
 30
0.0
 10
83.779927
 20
143.423210
 30
0.0
  0
SPLINE
  5
157
100
AcDbEntity
  8
0
100
AcDbSpline
 70
8
 71
3
 72
8
 73
4
 74
0
 40
0
 40
0
 40
0
 40
0
 40
1
 40
1
 40
1
 40
1
 10
83.779927
 20
143.423210
 30
0.0
 10
83.500804
 20
147.368981
 30
0.0
 10
83.518429
 20
149.019284
 30
0.0
 10
83.888428
 20
153.583210
 30
0.0
  0
SPLINE
  5
158
100
AcDbEntity
  8
0
100
AcDbSpline
 70
8
 71
3
 72
8
 73
4
 74
0
 40
0
 40
0
 40
0
 40
0
 40
1
 40
1
 40
1
 40
1
 10
83.888428
 20
153.583210
 30
0.0
 10
84.131396
 20
156.580170
 30
0.0
 10
84.234167
 20
159.138641
 30
0.0
 10
84.116810
 20
159.268700
 30
0.0
  0
SPLINE
  5
159
100
AcDbEntity
  8
0
100
AcDbSpline
 70
8
 71
3
 72
8
 73
4
 74
0
 40
0
 40
0
 40
0
 40
0
 40
1
 40
1
 40
1
 40
1
 10
84.116810
 20
159.268700
 30
0.0
 10
83.854891
 20
159.558974
 30
0.0
 10
82.353379
 20
153.423864
 30
0.0
 10
81.606906
 20
149.013340
 30
0.0
  0
SPLINE
  5
15a
100
AcDbEntity
  8
0
100
AcDbSpline
 70
8
 71
3
 72
8
 73
4
 74
0
 40
0
 40
0
 40
0
 40
0
 40
1
 40
1
 40
1
 40
1
 10
81.606906
 20
149.013340
 30
0.0
 10
79.882148
 20
138.822640
 30
0.0
 10
80.136481
 20
127.256824
 30
0.0
 10
82.279657
 20
118.419785
 30
0.0
  0
SPLINE
  5
15b
100
AcDbEntity
  8
0
100
AcDbSpline
 70
8
 71
3
 72
8
 73
4
 74
0
 40
0
 40
0
 40
0
 40
0
 40
1
 40
1
 40
1
 40
1
 10
82.279657
 20
118.419785
 30
0.0
 10
82.358622
 20
118.094186
 30
0.0
 10
82.239206
 20
118.226980
 30
0.0
 10
82.014289
 20
118.714883
 30
0.0
  0
SPLINE
  5
15c
100
AcDbEntity
  8
0
100
AcDbSpline
 70
8
 71
3
 72
8
 73
4
 74
0
 40
0
 40
0
 40
0
 40
0
 40
1
 40
1
 40
1
 40
1
 10
82.014289
 20
118.714883
 30
0.0
 10
80.052235
 20
122.971073
 30
0.0
 10
79.461597
 20
138.405555
 30
0.0
 10
80.890107
 20
148.092034
 30
0.0
  0
SPLINE
  5
15d
100
AcDbEntity
  8
0
100
AcDbSpline
 70
8
 71
3
 72
8
 73
4
 74
0
 40
0
 40
0
 40
0
 40
0
 40
1
 40
1
 40
1
 40
1
 10
80.890107
 20
148.092034
 30
0.0
 10
81.732969
 20
153.807350
 30
0.0
 10
83.119635
 20
159.698720
 30
0.0
 10
83.628492
 20
159.726310
 30
0.0
  0
SPLINE
  5
15e
100
AcDbEntity
  8
0
100
AcDbSpline
 70
8
 71
3
 72
8
 73
4
 74
0
 40
0
 40
0
 40
0
 40
0
 40
1
 40
1
 40
1
 40
1
 10
83.628492
 20
159.726310
 30
0.0
 10
84.658773
 20
159.782170
 30
0.0
 10
84.686815
 20
159.735352
 30
0.0
 10
84.678111
 20
157.973896
 30
0.0
  0
SPLINE
  5
15f
100
AcDbEntity
  8
0
100
AcDbSpline
 70
8
 71
3
 72
8
 73
4
 74
0
 40
0
 40
0
 40
0
 40
0
 40
1
 40
1
 40
1
 40
1
 10
84.678111
 20
157.973896
 30
0.0
 10
84.673319
 20
157.003757
 30
0.0
 10
84.538905
 20
155.257507
 30
0.0
 10
84.379415
 20
154.093340
 30
0.0
  0
SPLINE
  5
160
100
AcDbEntity
  8
0
100
AcDbSpline
 70
8
 71
3
 72
8
 73
4
 74
0
 40
0
 40
0
 40
0
 40
0
 40
1
 40
1
 40
1
 40
1
 10
84.379415
 20
154.093340
 30
0.0
 10
83.947161
 20
150.938214
 30
0.0
 10
84.027828
 20
143.962937
 30
0.0
 10
84.540973
 20
140.123340
 30
0.0
  0
SPLINE
  5
161
100
AcDbEntity
  8
0
100
AcDbSpline
 70
8
 71
3
 72
8
 73
4
 74
0
 40
0
 40
0
 40
0
 40
0
 40
1
 40
1
 40
1
 40
1
 10
84.540973
 20
140.123340
 30
0.0
 10
86.082251
 20
128.590733
 30
0.0
 10
89.459647
 20
118.946274
 30
0.0
 10
95.419472
 20
109.058785
 30
0.0
  0
SPLINE
  5
162
100
AcDbEntity
  8
0
100
AcDbSpline
 70
8
 71
3
 72
8
 73
4
 74
0
 40
0
 40
0
 40
0
 40
0
 40
1
 40
1
 40
1
 40
1
 10
95.419472
 20
109.058785
 30
0.0
 10
96.535553
 20
107.207178
 30
0.0
 10
97.505782
 20
105.596979
 30
0.0
 10
97.575537
 20
105.480563
 30
0.0
  0
SPLINE
  5
163
100
AcDbEntity
  8
0
100
AcDbSpline
 70
8
 71
3
 72
8
 73
4
 74
0
 40
0
 40
0
 40
0
 40
0
 40
1
 40
1
 40
1
 40
1
 10
97.575537
 20
105.480563
 30
0.0
 10
97.828278
 20
105.058742
 30
0.0
 10
97.472184
 20
105.283126
 30
0.0
 10
96.903715
 20
105.903896
 30
0.0
  0
LINE
  5
164
100
AcDbEntity
  8
0
100
AcDbLine
 10
96.903715
 20
105.903896
 30
0.0
 11
96.903715
 21
105.903896
 31
0.0
  0
SPLINE
  5
165
100
AcDbEntity
  8
0
100
AcDbSpline
 70
8
 71
3
 72
8
 73
4
 74
0
 40
0
 40
0
 40
0
 40
0
 40
1
 40
1
 40
1
 40
1
 10
96.727953
 20
107.946694
 30
0.0
 10
93.231510
 20
113.919670
 30
0.0
 10
90.705068
 20
125.946951
 30
0.0
 10
90.947124
 20
135.466674
 30
0.0
  0
SPLINE
  5
166
100
AcDbEntity
  8
0
100
AcDbSpline
 70
8
 71
3
 72
8
 73
4
 74
0
 40
0
 40
0
 40
0
 40
0
 40
1
 40
1
 40
1
 40
1
 10
90.947124
 20
135.466674
 30
0.0
 10
91.033168
 20
138.850606
 30
0.0
 10
91.062054
 20
138.998041
 30
0.0
 10
91.655533
 20
139.082502
 30
0.0
  0
SPLINE
  5
167
100
AcDbEntity
  8
0
100
AcDbSpline
 70
8
 71
3
 72
8
 73
4
 74
0
 40
0
 40
0
 40
0
 40
0
 40
1
 40
1
 40
1
 40
1
 10
91.655533
 20
139.082502
 30
0.0
 10
92.390285
 20
139.187065
 30
0.0
 10
92.679585
 20
138.688065
 30
0.0
 10
93.997280
 20
135.043340
 30
0.0
  0
SPLINE
  5
168
100
AcDbEntity
  8
0
100
AcDbSpline
 70
8
 71
3
 72
8
 73
4
 74
0
 40
0
 40
0
 40
0
 40
0
 40
1
 40
1
 40
1
 40
1
 10
93.997280
 20
135.043340
 30
0.0
 10
95.879652
 20
129.836738
 30
0.0
 10
99.065599
 20
124.534920
 30
0.0
 10
104.254921
 20
117.973335
 30
0.0
  0
SPLINE
  5
169
100
AcDbEntity
  8
0
100
AcDbSpline
 70
8
 71
3
 72
8
 73
4
 74
0
 40
0
 40
0
 40
0
 40
0
 40
1
 40
1
 40
1
 40
1
 10
104.254921
 20
117.973335
 30
0.0
 10
107.193675
 20
114.257459
 30
0.0
 10
108.011025
 20
112.944127
 30
0.0
 10
106.527713
 20
114.321368
 30
0.0
  0
SPLINE
  5
16a
100
AcDbEntity
  8
0
100
AcDbSpline
 70
8
 71
3
 72
8
 73
4
 74
0
 40
0
 40
0
 40
0
 40
0
 40
1
 40
1
 40
1
 40
1
 10
106.527713
 20
114.321368
 30
0.0
 10
105.436015
 20
115.335001
 30
0.0
 10
100.796954
 20
121.182436
 30
0.0
 10
99.155930
 20
123.613340
 30
0.0
  0
SPLINE
  5
16b
100
AcDbEntity
  8
0
100
AcDbSpline
 70
8
 71
3
 72
8
 73
4
 74
0
 40
0
 40
0
 40
0
 40
0
 40
1
 40
1
 40
1
 40
1
 10
99.155930
 20
123.613340
 30
0.0
 10
96.762562
 20
127.158723
 30
0.0
 10
94.675692
 20
131.191501
 30
0.0
 10
93.277679
 20
134.972785
 30
0.0
  0
SPLINE
  5
16c
100
AcDbEntity
  8
0
100
AcDbSpline
 70
8
 71
3
 72
8
 73
4
 74
0
 40
0
 40
0
 40
0
 40
0
 40
1
 40
1
 40
1
 40
1
 10
93.277679
 20
134.972785
 30
0.0
 10
92.545972
 20
136.951868
 30
0.0
 10
91.845480
 20
138.571118
 30
0.0
 10
91.721026
 20
138.571118
 30
0.0
  0
SPLINE
  5
16d
100
AcDbEntity
  8
0
100
AcDbSpline
 70
8
 71
3
 72
8
 73
4
 74
0
 40
0
 40
0
 40
0
 40
0
 40
1
 40
1
 40
1
 40
1
 10
91.721026
 20
138.571118
 30
0.0
 10
90.547119
 20
138.571118
 30
0.0
 10
91.574572
 20
125.938671
 30
0.0
 10
93.293398
 20
119.238896
 30
0.0
  0
SPLINE
  5
16e
100
AcDbEntity
  8
0
100
AcDbSpline
 70
8
 71
3
 72
8
 73
4
 74
0
 40
0
 40
0
 40
0
 40
0
 40
1
 40
1
 40
1
 40
1
 10
93.293398
 20
119.238896
 30
0.0
 10
94.139120
 20
115.942368
 30
0.0
 10
95.765846
 20
111.302564
 30
0.0
 10
96.994644
 20
108.682055
 30
0.0
  0
SPLINE
  5
16f
100
AcDbEntity
  8
0
100
AcDbSpline
 70
8
 71
3
 72
8
 73
4
 74
0
 40
0
 40
0
 40
0
 40
0
 40
1
 40
1
 40
1
 40
1
 10
96.994644
 20
108.682055
 30
0.0
 10
97.679281
 20
107.222015
 30
0.0
 10
98.184375
 20
105.972369
 30
0.0
 10
98.117073
 20
105.905067
 30
0.0
  0
SPLINE
  5
170
100
AcDbEntity
  8
0
100
AcDbSpline
 70
8
 71
3
 72
8
 73
4
 74
0
 40
0
 40
0
 40
0
 40
0
 40
1
 40
1
 40
1
 40
1
 10
98.117073
 20
105.905067
 30
0.0
 10
98.049769
 20
105.837766
 30
0.0
 10
97.424666
 20
106.756498
 30
0.0
 10
96.727953
 20
107.946694
 30
0.0
  0
LINE
  5
171
100
AcDbEntity
  8
0
100
AcDbLine
 10
96.727953
 20
107.946694
 30
0.0
 11
96.727953
 21
107.946694
 31
0.0
  0
SPLINE
  5
172
100
AcDbEntity
  8
0
100
AcDbSpline
 70
8
 71
3
 72
8
 73
4
 74
0
 40
0
 40
0
 40
0
 40
0
 40
1
 40
1
 40
1
 40
1
 10
43.905715
 20
113.402921
 30
0.0
 10
44.216159
 20
113.711881
 30
0.0
 10
45.676659
 20
114.624114
 30
0.0
 10
47.151270
 20
115.430104
 30
0.0
  0
SPLINE
  5
173
100
AcDbEntity
  8
0
100
AcDbSpline
 70
8
 71
3
 72
8
 73
4
 74
0
 40
0
 40
0
 40
0
 40
0
 40
1
 40
1
 40
1
 40
1
 10
47.151270
 20
115.430104
 30
0.0
 10
56.809214
 20
120.708927
 30
0.0
 10
67.411005
 20
130.005710
 30
0.0
 10
74.157484
 20
139.112045
 30
0.0
  0
SPLINE
  5
174
100
AcDbEntity
  8
0
100
AcDbSpline
 70
8
 71
3
 72
8
 73
4
 74
0
 40
0
 40
0
 40
0
 40
0
 40
1
 40
1
 40
1
 40
1
 10
74.157484
 20
139.112045
 30
0.0
 10
74.205400
 20
139.176719
 30
0.0
 10
74.317468
 20
139.156772
 30
0.0
 10
74.406526
 20
139.067716
 30
0.0
  0
SPLINE
  5
175
100
AcDbEntity
  8
0
100
AcDbSpline
 70
8
 71
3
 72
8
 73
4
 74
0
 40
0
 40
0
 40
0
 40
0
 40
1
 40
1
 40
1
 40
1
 10
74.406526
 20
139.067716
 30
0.0
 10
75.290559
 20
138.183681
 30
0.0
 10
65.981027
 20
128.140890
 30
0.0
 10
59.419925
 20
122.900704
 30
0.0
  0
SPLINE
  5
176
100
AcDbEntity
  8
0
100
AcDbSpline
 70
8
 71
3
 72
8
 73
4
 74
0
 40
0
 40
0
 40
0
 40
0
 40
1
 40
1
 40
1
 40
1
 10
59.419925
 20
122.900704
 30
0.0
 10
54.351287
 20
118.852511
 30
0.0
 10
47.851506
 20
114.678862
 30
0.0
 10
44.470159
 20
113.301141
 30
0.0
  0
SPLINE
  5
177
100
AcDbEntity
  8
0
100
AcDbSpline
 70
8
 71
3
 72
8
 73
4
 74
0
 40
0
 40
0
 40
0
 40
0
 40
1
 40
1
 40
1
 40
1
 10
44.470159
 20
113.301141
 30
0.0
 10
43.342800
 20
112.841801
 30
0.0
 10
43.342035
 20
112.841940
 30
0.0
 10
43.905715
 20
113.402921
 30
0.0
  0
LINE
  5
178
100
AcDbEntity
  8
0
100
AcDbLine
 10
43.905715
 20
113.402921
 30
0.0
 11
43.905715
 21
113.402921
 31
0.0
  0
SPLINE
  5
179
100
AcDbEntity
  8
0
100
AcDbSpline
 70
8
 71
3
 72
8
 73
4
 74
0
 40
0
 40
0
 40
0
 40
0
 40
1
 40
1
 40
1
 40
1
 10
44.614036
 20
115.469389
 30
0.0
 10
48.352558
 20
119.131606
 30
0.0
 10
52.086897
 20
124.571761
 30
0.0
 10
55.950618
 20
131.984421
 30
0.0
  0
SPLINE
  5
17a
100
AcDbEntity
  8
0
100
AcDbSpline
 70
8
 71
3
 72
8
 73
4
 74
0
 40
0
 40
0
 40
0
 40
0
 40
1
 40
1
 40
1
 40
1
 10
55.950618
 20
131.984421
 30
0.0
 10
57.903533
 20
135.731153
 30
0.0
 10
59.004604
 20
137.442331
 30
0.0
 10
59.004604
 20
136.730640
 30
0.0
  0
SPLINE
  5
17b
100
AcDbEntity
  8
0
100
AcDbSpline
 70
8
 71
3
 72
8
 73
4
 74
0
 40
0
 40
0
 40
0
 40
0
 40
1
 40
1
 40
1
 40
1
 10
59.004604
 20
136.730640
 30
0.0
 10
59.004604
 20
136.247391
 30
0.0
 10
54.945774
 20
128.486979
 30
0.0
 10
53.113926
 20
125.467766
 30
0.0
  0
SPLINE
  5
17c
100
AcDbEntity
  8
0
100
AcDbSpline
 70
8
 71
3
 72
8
 73
4
 74
0
 40
0
 40
0
 40
0
 40
0
 40
1
 40
1
 40
1
 40
1
 10
53.113926
 20
125.467766
 30
0.0
 10
49.655995
 20
119.768483
 30
0.0
 10
45.735694
 20
115.013256
 30
0.0
 10
43.625423
 20
113.958448
 30
0.0
  0
SPLINE
  5
17d
100
AcDbEntity
  8
0
100
AcDbSpline
 70
8
 71
3
 72
8
 73
4
 74
0
 40
0
 40
0
 40
0
 40
0
 40
1
 40
1
 40
1
 40
1
 10
43.625423
 20
113.958448
 30
0.0
 10
42.580185
 20
113.435992
 30
0.0
 10
42.655002
 20
113.550340
 30
0.0
 10
44.614036
 20
115.469389
 30
0.0
  0
LINE
  5
17e
100
AcDbEntity
  8
0
100
AcDbLine
 10
44.614036
 20
115.469389
 30
0.0
 11
44.614036
 21
115.469389
 31
0.0
  0
SPLINE
  5
17f
100
AcDbEntity
  8
0
100
AcDbSpline
 70
8
 71
3
 72
8
 73
4
 74
0
 40
0
 40
0
 40
0
 40
0
 40
1
 40
1
 40
1
 40
1
 10
106.941592
 20
115.364555
 30
0.0
 10
104.227303
 20
119.008343
 30
0.0
 10
101.461562
 20
125.723183
 30
0.0
 10
100.114870
 20
131.938896
 30
0.0
  0
SPLINE
  5
180
100
AcDbEntity
  8
0
100
AcDbSpline
 70
8
 71
3
 72
8
 73
4
 74
0
 40
0
 40
0
 40
0
 40
0
 40
1
 40
1
 40
1
 40
1
 10
100.114870
 20
131.938896
 30
0.0
 10
99.267340
 20
135.850708
 30
0.0
 10
99.024273
 20
139.256596
 30
0.0
 10
99.127031
 20
145.780629
 30
0.0
  0
SPLINE
  5
181
100
AcDbEntity
  8
0
100
AcDbSpline
 70
8
 71
3
 72
8
 73
4
 74
0
 40
0
 40
0
 40
0
 40
0
 40
1
 40
1
 40
1
 40
1
 10
99.127031
 20
145.780629
 30
0.0
 10
99.237512
 20
152.795160
 30
0.0
 10
99.382507
 20
153.528896
 30
0.0
 10
100.658179
 20
153.528896
 30
0.0
  0
SPLINE
  5
182
100
AcDbEntity
  8
0
100
AcDbSpline
 70
8
 71
3
 72
8
 73
4
 74
0
 40
0
 40
0
 40
0
 40
0
 40
1
 40
1
 40
1
 40
1
 10
100.658179
 20
153.528896
 30
0.0
 10
101.644416
 20
153.528896
 30
0.0
 10
102.268181
 20
151.999404
 30
0.0
 10
103.017676
 20
147.743340
 30
0.0
  0
SPLINE
  5
183
100
AcDbEntity
  8
0
100
AcDbSpline
 70
8
 71
3
 72
8
 73
4
 74
0
 40
0
 40
0
 40
0
 40
0
 40
1
 40
1
 40
1
 40
1
 10
103.017676
 20
147.743340
 30
0.0
 10
104.412728
 20
139.821411
 30
0.0
 10
107.201578
 20
131.625849
 30
0.0
 10
111.252830
 20
123.542785
 30
0.0
  0
SPLINE
  5
184
100
AcDbEntity
  8
0
100
AcDbSpline
 70
8
 71
3
 72
8
 73
4
 74
0
 40
0
 40
0
 40
0
 40
0
 40
1
 40
1
 40
1
 40
1
 10
111.252830
 20
123.542785
 30
0.0
 10
112.011358
 20
122.029368
 30
0.0
 10
112.579384
 20
120.791118
 30
0.0
 10
112.515111
 20
120.791118
 30
0.0
  0
SPLINE
  5
185
100
AcDbEntity
  8
0
100
AcDbSpline
 70
8
 71
3
 72
8
 73
4
 74
0
 40
0
 40
0
 40
0
 40
0
 40
1
 40
1
 40
1
 40
1
 10
112.515111
 20
120.791118
 30
0.0
 10
112.270633
 20
120.791118
 30
0.0
 10
109.766808
 20
125.304396
 30
0.0
 10
108.440000
 20
128.136719
 30
0.0
  0
SPLINE
  5
186
100
AcDbEntity
  8
0
100
AcDbSpline
 70
8
 71
3
 72
8
 73
4
 74
0
 40
0
 40
0
 40
0
 40
0
 40
1
 40
1
 40
1
 40
1
 10
108.440000
 20
128.136719
 30
0.0
 10
105.659377
 20
134.072485
 30
0.0
 10
103.671460
 20
140.500700
 30
0.0
 10
102.463950
 20
147.461118
 30
0.0
  0
SPLINE
  5
187
100
AcDbEntity
  8
0
100
AcDbSpline
 70
8
 71
3
 72
8
 73
4
 74
0
 40
0
 40
0
 40
0
 40
0
 40
1
 40
1
 40
1
 40
1
 10
102.463950
 20
147.461118
 30
0.0
 10
102.140811
 20
149.323785
 30
0.0
 10
101.608831
 20
151.404271
 30
0.0
 10
101.281778
 20
152.084423
 30
0.0
  0
LINE
  5
188
100
AcDbEntity
  8
0
100
AcDbLine
 10
101.281778
 20
152.084423
 30
0.0
 11
100.687130
 21
153.321062
 31
0.0
  0
LINE
  5
189
100
AcDbEntity
  8
0
100
AcDbLine
 10
100.687130
 20
153.321062
 30
0.0
 11
100.299641
 21
152.581513
 31
0.0
  0
SPLINE
  5
18a
100
AcDbEntity
  8
0
100
AcDbSpline
 70
8
 71
3
 72
8
 73
4
 74
0
 40
0
 40
0
 40
0
 40
0
 40
1
 40
1
 40
1
 40
1
 10
100.299641
 20
152.581513
 30
0.0
 10
99.322633
 20
150.716825
 30
0.0
 10
99.077800
 20
143.081628
 30
0.0
 10
99.812746
 20
137.397565
 30
0.0
  0
SPLINE
  5
18b
100
AcDbEntity
  8
0
100
AcDbSpline
 70
8
 71
3
 72
8
 73
4
 74
0
 40
0
 40
0
 40
0
 40
0
 40
1
 40
1
 40
1
 40
1
 10
99.812746
 20
137.397565
 30
0.0
 10
100.791634
 20
129.826866
 30
0.0
 10
103.804700
 20
121.133273
 30
0.0
 10
107.452360
 20
115.355004
 30
0.0
  0
SPLINE
  5
18c
100
AcDbEntity
  8
0
100
AcDbSpline
 70
8
 71
3
 72
8
 73
4
 74
0
 40
0
 40
0
 40
0
 40
0
 40
1
 40
1
 40
1
 40
1
 10
107.452360
 20
115.355004
 30
0.0
 10
108.448340
 20
113.777269
 30
0.0
 10
108.119393
 20
113.783422
 30
0.0
 10
106.941592
 20
115.364555
 30
0.0
  0
LINE
  5
18d
100
AcDbEntity
  8
0
100
AcDbLine
 10
106.941592
 20
115.364555
 30
0.0
 11
106.941592
 21
115.364555
 31
0.0
  0
SPLINE
  5
18e
100
AcDbEntity
  8
0
100
AcDbSpline
 70
8
 71
3
 72
8
 73
4
 74
0
 40
0
 40
0
 40
0
 40
0
 40
1
 40
1
 40
1
 40
1
 10
80.492380
 20
119.860815
 30
0.0
 10
78.411733
 20
126.429873
 30
0.0
 10
77.768461
 20
131.081124
 30
0.0
 10
77.787635
 20
139.417785
 30
0.0
  0
SPLINE
  5
18f
100
AcDbEntity
  8
0
100
AcDbSpline
 70
8
 71
3
 72
8
 73
4
 74
0
 40
0
 40
0
 40
0
 40
0
 40
1
 40
1
 40
1
 40
1
 10
77.787635
 20
139.417785
 30
0.0
 10
77.801577
 20
145.478439
 30
0.0
 10
77.879098
 20
146.512126
 30
0.0
 10
78.687154
 20
151.412229
 30
0.0
  0
SPLINE
  5
190
100
AcDbEntity
  8
0
100
AcDbSpline
 70
8
 71
3
 72
8
 73
4
 74
0
 40
0
 40
0
 40
0
 40
0
 40
1
 40
1
 40
1
 40
1
 10
78.687154
 20
151.412229
 30
0.0
 10
80.076983
 20
159.840220
 30
0.0
 10
81.397802
 20
164.852955
 30
0.0
 10
83.892604
 20
171.167785
 30
0.0
  0
SPLINE
  5
191
100
AcDbEntity
  8
0
100
AcDbSpline
 70
8
 71
3
 72
8
 73
4
 74
0
 40
0
 40
0
 40
0
 40
0
 40
1
 40
1
 40
1
 40
1
 10
83.892604
 20
171.167785
 30
0.0
 10
86.457206
 20
177.659291
 30
0.0
 10
91.059248
 20
185.587884
 30
0.0
 10
95.253485
 20
190.740779
 30
0.0
  0
SPLINE
  5
192
100
AcDbEntity
  8
0
100
AcDbSpline
 70
8
 71
3
 72
8
 73
4
 74
0
 40
0
 40
0
 40
0
 40
0
 40
1
 40
1
 40
1
 40
1
 10
95.253485
 20
190.740779
 30
0.0
 10
96.238314
 20
191.950705
 30
0.0
 10
97.101544
 20
193.185250
 30
0.0
 10
97.171778
 20
193.484213
 30
0.0
  0
SPLINE
  5
193
100
AcDbEntity
  8
0
100
AcDbSpline
 70
8
 71
3
 72
8
 73
4
 74
0
 40
0
 40
0
 40
0
 40
0
 40
1
 40
1
 40
1
 40
1
 10
97.171778
 20
193.484213
 30
0.0
 10
97.292784
 20
193.999311
 30
0.0
 10
97.311097
 20
194.000971
 30
0.0
 10
97.521361
 20
193.515899
 30
0.0
  0
SPLINE
  5
194
100
AcDbEntity
  8
0
100
AcDbSpline
 70
8
 71
3
 72
8
 73
4
 74
0
 40
0
 40
0
 40
0
 40
0
 40
1
 40
1
 40
1
 40
1
 10
97.521361
 20
193.515899
 30
0.0
 10
97.807501
 20
192.855786
 30
0.0
 10
97.435712
 20
192.166938
 30
0.0
 10
95.665132
 20
190.076674
 30
0.0
  0
SPLINE
  5
195
100
AcDbEntity
  8
0
100
AcDbSpline
 70
8
 71
3
 72
8
 73
4
 74
0
 40
0
 40
0
 40
0
 40
0
 40
1
 40
1
 40
1
 40
1
 10
95.665132
 20
190.076674
 30
0.0
 10
93.586670
 20
187.622941
 30
0.0
 10
89.773980
 20
181.784375
 30
0.0
 10
87.818067
 20
178.060069
 30
0.0
  0
SPLINE
  5
196
100
AcDbEntity
  8
0
100
AcDbSpline
 70
8
 71
3
 72
8
 73
4
 74
0
 40
0
 40
0
 40
0
 40
0
 40
1
 40
1
 40
1
 40
1
 10
87.818067
 20
178.060069
 30
0.0
 10
83.175306
 20
169.219664
 30
0.0
 10
80.625264
 20
160.774525
 30
0.0
 10
78.766868
 20
148.084646
 30
0.0
  0
SPLINE
  5
197
100
AcDbEntity
  8
0
100
AcDbSpline
 70
8
 71
3
 72
8
 73
4
 74
0
 40
0
 40
0
 40
0
 40
0
 40
1
 40
1
 40
1
 40
1
 10
78.766868
 20
148.084646
 30
0.0
 10
77.404361
 20
138.780897
 30
0.0
 10
77.772808
 20
133.129831
 30
0.0
 10
80.471064
 20
121.946443
 30
0.0
  0
SPLINE
  5
198
100
AcDbEntity
  8
0
100
AcDbSpline
 70
8
 71
3
 72
8
 73
4
 74
0
 40
0
 40
0
 40
0
 40
0
 40
1
 40
1
 40
1
 40
1
 10
80.471064
 20
121.946443
 30
0.0
 10
81.085498
 20
119.399816
 30
0.0
 10
81.538685
 20
117.266679
 30
0.0
 10
81.478145
 20
117.206140
 30
0.0
  0
SPLINE
  5
199
100
AcDbEntity
  8
0
100
AcDbSpline
 70
8
 71
3
 72
8
 73
4
 74
0
 40
0
 40
0
 40
0
 40
0
 40
1
 40
1
 40
1
 40
1
 10
81.478145
 20
117.206140
 30
0.0
 10
81.417603
 20
117.145600
 30
0.0
 10
80.974012
 20
118.340204
 30
0.0
 10
80.492380
 20
119.860815
 30
0.0
  0
LINE
  5
19a
100
AcDbEntity
  8
0
100
AcDbLine
 10
80.492380
 20
119.860815
 30
0.0
 11
80.492380
 21
119.860815
 31
0.0
  0
SPLINE
  5
19b
100
AcDbEntity
  8
0
100
AcDbSpline
 70
8
 71
3
 72
8
 73
4
 74
0
 40
0
 40
0
 40
0
 40
0
 40
1
 40
1
 40
1
 40
1
 10
106.829665
 20
119.116561
 30
0.0
 10
106.727351
 20
119.282110
 30
0.0
 10
106.704167
 20
119.478088
 30
0.0
 10
106.778146
 20
119.552067
 30
0.0
  0
SPLINE
  5
19c
100
AcDbEntity
  8
0
100
AcDbSpline
 70
8
 71
3
 72
8
 73
4
 74
0
 40
0
 40
0
 40
0
 40
0
 40
1
 40
1
 40
1
 40
1
 10
106.778146
 20
119.552067
 30
0.0
 10
106.852122
 20
119.626045
 30
0.0
 10
106.987854
 20
119.490596
 30
0.0
 10
107.079771
 20
119.251068
 30
0.0
  0
SPLINE
  5
19d
100
AcDbEntity
  8
0
100
AcDbSpline
 70
8
 71
3
 72
8
 73
4
 74
0
 40
0
 40
0
 40
0
 40
0
 40
1
 40
1
 40
1
 40
1
 10
107.079771
 20
119.251068
 30
0.0
 10
107.270604
 20
118.753762
 30
0.0
 10
107.107950
 20
118.666287
 30
0.0
 10
106.829665
 20
119.116561
 30
0.0
  0
LINE
  5
19e
100
AcDbEntity
  8
0
100
AcDbLine
 10
106.829665
 20
119.116561
 30
0.0
 11
106.829665
 21
119.116561
 31
0.0
  0
SPLINE
  5
19f
100
AcDbEntity
  8
0
100
AcDbSpline
 70
8
 71
3
 72
8
 73
4
 74
0
 40
0
 40
0
 40
0
 40
0
 40
1
 40
1
 40
1
 40
1
 10
105.708823
 20
121.531791
 30
0.0
 10
105.026483
 20
123.074680
 30
0.0
 10
104.868099
 20
123.563918
 30
0.0
 10
105.138485
 20
123.293532
 30
0.0
  0
SPLINE
  5
1a0
100
AcDbEntity
  8
0
100
AcDbSpline
 70
8
 71
3
 72
8
 73
4
 74
0
 40
0
 40
0
 40
0
 40
0
 40
1
 40
1
 40
1
 40
1
 10
105.138485
 20
123.293532
 30
0.0
 10
105.384165
 20
123.047854
 30
0.0
 10
106.693922
 20
119.944451
 30
0.0
 10
106.551930
 20
119.944451
 30
0.0
  0
SPLINE
  5
1a1
100
AcDbEntity
  8
0
100
AcDbSpline
 70
8
 71
3
 72
8
 73
4
 74
0
 40
0
 40
0
 40
0
 40
0
 40
1
 40
1
 40
1
 40
1
 10
106.551930
 20
119.944451
 30
0.0
 10
106.474319
 20
119.944451
 30
0.0
 10
106.094919
 20
120.658753
 30
0.0
 10
105.708823
 20
121.531791
 30
0.0
  0
LINE
  5
1a2
100
AcDbEntity
  8
0
100
AcDbLine
 10
105.708823
 20
121.531791
 30
0.0
 11
105.708823
 21
121.531791
 31
0.0
  0
SPLINE
  5
1a3
100
AcDbEntity
  8
0
100
AcDbSpline
 70
8
 71
3
 72
8
 73
4
 74
0
 40
0
 40
0
 40
0
 40
0
 40
1
 40
1
 40
1
 40
1
 10
106.609628
 20
121.792014
 30
0.0
 10
105.946640
 20
123.182316
 30
0.0
 10
106.039912
 20
123.418895
 30
0.0
 10
106.733038
 20
122.105043
 30
0.0
  0
SPLINE
  5
1a4
100
AcDbEntity
  8
0
100
AcDbSpline
 70
8
 71
3
 72
8
 73
4
 74
0
 40
0
 40
0
 40
0
 40
0
 40
1
 40
1
 40
1
 40
1
 10
106.733038
 20
122.105043
 30
0.0
 10
107.047846
 20
121.508310
 30
0.0
 10
107.255493
 20
120.970157
 30
0.0
 10
107.194480
 20
120.909141
 30
0.0
  0
SPLINE
  5
1a5
100
AcDbEntity
  8
0
100
AcDbSpline
 70
8
 71
3
 72
8
 73
4
 74
0
 40
0
 40
0
 40
0
 40
0
 40
1
 40
1
 40
1
 40
1
 10
107.194480
 20
120.909141
 30
0.0
 10
107.133463
 20
120.848127
 30
0.0
 10
106.870283
 20
121.245420
 30
0.0
 10
106.609628
 20
121.792014
 30
0.0
  0
LINE
  5
1a6
100
AcDbEntity
  8
0
100
AcDbLine
 10
106.609628
 20
121.792014
 30
0.0
 11
106.609628
 21
121.792014
 31
0.0
  0
SPLINE
  5
1a7
100
AcDbEntity
  8
0
100
AcDbSpline
 70
8
 71
3
 72
8
 73
4
 74
0
 40
0
 40
0
 40
0
 40
0
 40
1
 40
1
 40
1
 40
1
 10
112.205256
 20
122.885898
 30
0.0
 10
108.558561
 20
129.406795
 30
0.0
 10
106.986138
 20
135.959374
 30
0.0
 10
106.985181
 20
144.638896
 30
0.0
  0
SPLINE
  5
1a8
100
AcDbEntity
  8
0
100
AcDbSpline
 70
8
 71
3
 72
8
 73
4
 74
0
 40
0
 40
0
 40
0
 40
0
 40
1
 40
1
 40
1
 40
1
 10
106.985181
 20
144.638896
 30
0.0
 10
106.984419
 20
151.544854
 30
0.0
 10
107.904864
 20
156.491518
 30
0.0
 10
110.219527
 20
162.020943
 30
0.0
  0
SPLINE
  5
1a9
100
AcDbEntity
  8
0
100
AcDbSpline
 70
8
 71
3
 72
8
 73
4
 74
0
 40
0
 40
0
 40
0
 40
0
 40
1
 40
1
 40
1
 40
1
 10
110.219527
 20
162.020943
 30
0.0
 10
111.476736
 20
165.024250
 30
0.0
 10
112.692251
 20
166.576187
 30
0.0
 10
113.693248
 20
166.456090
 30
0.0
  0
SPLINE
  5
1aa
100
AcDbEntity
  8
0
100
AcDbSpline
 70
8
 71
3
 72
8
 73
4
 74
0
 40
0
 40
0
 40
0
 40
0
 40
1
 40
1
 40
1
 40
1
 10
113.693248
 20
166.456090
 30
0.0
 10
114.659060
 20
166.340216
 30
0.0
 10
114.694013
 20
165.750507
 30
0.0
 10
113.877389
 20
163.349529
 30
0.0
  0
SPLINE
  5
1ab
100
AcDbEntity
  8
0
100
AcDbSpline
 70
8
 71
3
 72
8
 73
4
 74
0
 40
0
 40
0
 40
0
 40
0
 40
1
 40
1
 40
1
 40
1
 10
113.877389
 20
163.349529
 30
0.0
 10
113.022987
 20
160.837481
 30
0.0
 10
112.465589
 20
158.118168
 30
0.0
 10
112.076157
 20
154.562044
 30
0.0
  0
SPLINE
  5
1ac
100
AcDbEntity
  8
0
100
AcDbSpline
 70
8
 71
3
 72
8
 73
4
 74
0
 40
0
 40
0
 40
0
 40
0
 40
1
 40
1
 40
1
 40
1
 10
112.076157
 20
154.562044
 30
0.0
 10
111.731146
 20
151.411574
 30
0.0
 10
111.811903
 20
151.085549
 30
0.0
 10
114.464234
 20
144.921118
 30
0.0
  0
SPLINE
  5
1ad
100
AcDbEntity
  8
0
100
AcDbSpline
 70
8
 71
3
 72
8
 73
4
 74
0
 40
0
 40
0
 40
0
 40
0
 40
1
 40
1
 40
1
 40
1
 10
114.464234
 20
144.921118
 30
0.0
 10
116.597808
 20
139.962352
 30
0.0
 10
116.682749
 20
139.733515
 30
0.0
 10
116.140329
 20
140.405563
 30
0.0
  0
SPLINE
  5
1ae
100
AcDbEntity
  8
0
100
AcDbSpline
 70
8
 71
3
 72
8
 73
4
 74
0
 40
0
 40
0
 40
0
 40
0
 40
1
 40
1
 40
1
 40
1
 10
116.140329
 20
140.405563
 30
0.0
 10
115.448083
 20
141.263242
 30
0.0
 10
113.674604
 20
144.887127
 30
0.0
 10
112.483437
 20
147.877969
 30
0.0
  0
LINE
  5
1af
100
AcDbEntity
  8
0
100
AcDbLine
 10
112.483437
 20
147.877969
 30
0.0
 11
111.418209
 21
150.552597
 31
0.0
  0
LINE
  5
1b0
100
AcDbEntity
  8
0
100
AcDbLine
 10
111.418209
 20
150.552597
 30
0.0
 11
111.582460
 21
153.819345
 31
0.0
  0
SPLINE
  5
1b1
100
AcDbEntity
  8
0
100
AcDbSpline
 70
8
 71
3
 72
8
 73
4
 74
0
 40
0
 40
0
 40
0
 40
0
 40
1
 40
1
 40
1
 40
1
 10
111.582460
 20
153.819345
 30
0.0
 10
111.760446
 20
157.359284
 30
0.0
 10
112.603001
 20
162.030725
 30
0.0
 10
113.479580
 20
164.337694
 30
0.0
  0
SPLINE
  5
1b2
100
AcDbEntity
  8
0
100
AcDbSpline
 70
8
 71
3
 72
8
 73
4
 74
0
 40
0
 40
0
 40
0
 40
0
 40
1
 40
1
 40
1
 40
1
 10
113.479580
 20
164.337694
 30
0.0
 10
114.157286
 20
166.121268
 30
0.0
 10
113.807263
 20
166.628830
 30
0.0
 10
112.805396
 20
165.315314
 30
0.0
  0
SPLINE
  5
1b3
100
AcDbEntity
  8
0
100
AcDbSpline
 70
8
 71
3
 72
8
 73
4
 74
0
 40
0
 40
0
 40
0
 40
0
 40
1
 40
1
 40
1
 40
1
 10
112.805396
 20
165.315314
 30
0.0
 10
111.135691
 20
163.126218
 30
0.0
 10
109.213912
 20
157.973817
 30
0.0
 10
108.069572
 20
152.618289
 30
0.0
  0
SPLINE
  5
1b4
100
AcDbEntity
  8
0
100
AcDbSpline
 70
8
 71
3
 72
8
 73
4
 74
0
 40
0
 40
0
 40
0
 40
0
 40
1
 40
1
 40
1
 40
1
 10
108.069572
 20
152.618289
 30
0.0
 10
107.321649
 20
149.118002
 30
0.0
 10
107.170248
 20
141.457216
 30
0.0
 10
107.780799
 20
138.006674
 30
0.0
  0
SPLINE
  5
1b5
100
AcDbEntity
  8
0
100
AcDbSpline
 70
8
 71
3
 72
8
 73
4
 74
0
 40
0
 40
0
 40
0
 40
0
 40
1
 40
1
 40
1
 40
1
 10
107.780799
 20
138.006674
 30
0.0
 10
108.671103
 20
132.975114
 30
0.0
 10
110.772606
 20
126.422047
 30
0.0
 10
112.742565
 20
122.534520
 30
0.0
  0
SPLINE
  5
1b6
100
AcDbEntity
  8
0
100
AcDbSpline
 70
8
 71
3
 72
8
 73
4
 74
0
 40
0
 40
0
 40
0
 40
0
 40
1
 40
1
 40
1
 40
1
 10
112.742565
 20
122.534520
 30
0.0
 10
113.786161
 20
120.475083
 30
0.0
 10
113.419289
 20
120.715000
 30
0.0
 10
112.205256
 20
122.885898
 30
0.0
  0
LINE
  5
1b7
100
AcDbEntity
  8
0
100
AcDbLine
 10
112.205256
 20
122.885898
 30
0.0
 11
112.205256
 21
122.885898
 31
0.0
  0
SPLINE
  5
1b8
100
AcDbEntity
  8
0
100
AcDbSpline
 70
8
 71
3
 72
8
 73
4
 74
0
 40
0
 40
0
 40
0
 40
0
 40
1
 40
1
 40
1
 40
1
 10
26.986492
 20
122.750121
 30
0.0
 10
27.133953
 20
122.896239
 30
0.0
 10
28.397604
 20
123.267810
 30
0.0
 10
29.794604
 20
123.575839
 30
0.0
  0
SPLINE
  5
1b9
100
AcDbEntity
  8
0
100
AcDbSpline
 70
8
 71
3
 72
8
 73
4
 74
0
 40
0
 40
0
 40
0
 40
0
 40
1
 40
1
 40
1
 40
1
 10
29.794604
 20
123.575839
 30
0.0
 10
37.251299
 20
125.219975
 30
0.0
 10
45.281822
 20
128.954156
 30
0.0
 10
54.288859
 20
134.965630
 30
0.0
  0
SPLINE
  5
1ba
100
AcDbEntity
  8
0
100
AcDbSpline
 70
8
 71
3
 72
8
 73
4
 74
0
 40
0
 40
0
 40
0
 40
0
 40
1
 40
1
 40
1
 40
1
 10
54.288859
 20
134.965630
 30
0.0
 10
56.119031
 20
136.187125
 30
0.0
 10
57.833531
 20
137.265598
 30
0.0
 10
58.098859
 20
137.362236
 30
0.0
  0
SPLINE
  5
1bb
100
AcDbEntity
  8
0
100
AcDbSpline
 70
8
 71
3
 72
8
 73
4
 74
0
 40
0
 40
0
 40
0
 40
0
 40
1
 40
1
 40
1
 40
1
 10
58.098859
 20
137.362236
 30
0.0
 10
59.180024
 20
137.756018
 30
0.0
 10
57.381307
 20
136.192620
 30
0.0
 10
54.630159
 20
134.347332
 30
0.0
  0
SPLINE
  5
1bc
100
AcDbEntity
  8
0
100
AcDbSpline
 70
8
 71
3
 72
8
 73
4
 74
0
 40
0
 40
0
 40
0
 40
0
 40
1
 40
1
 40
1
 40
1
 10
54.630159
 20
134.347332
 30
0.0
 10
45.971291
 20
128.539538
 30
0.0
 10
37.167129
 20
124.465050
 30
0.0
 10
30.215307
 20
123.048360
 30
0.0
  0
SPLINE
  5
1bd
100
AcDbEntity
  8
0
100
AcDbSpline
 70
8
 71
3
 72
8
 73
4
 74
0
 40
0
 40
0
 40
0
 40
0
 40
1
 40
1
 40
1
 40
1
 10
30.215307
 20
123.048360
 30
0.0
 10
27.080633
 20
122.409555
 30
0.0
 10
26.597785
 20
122.364956
 30
0.0
 10
26.986492
 20
122.750121
 30
0.0
  0
LINE
  5
1be
100
AcDbEntity
  8
0
100
AcDbLine
 10
26.986492
 20
122.750121
 30
0.0
 11
26.986492
 21
122.750121
 31
0.0
  0
SPLINE
  5
1bf
100
AcDbEntity
  8
0
100
AcDbSpline
 70
8
 71
3
 72
8
 73
4
 74
0
 40
0
 40
0
 40
0
 40
0
 40
1
 40
1
 40
1
 40
1
 10
54.771270
 20
123.019725
 30
0.0
 10
54.771270
 20
123.177225
 30
0.0
 10
55.947894
 20
124.242809
 30
0.0
 10
57.385994
 20
125.387691
 30
0.0
  0
SPLINE
  5
1c0
100
AcDbEntity
  8
0
100
AcDbSpline
 70
8
 71
3
 72
8
 73
4
 74
0
 40
0
 40
0
 40
0
 40
0
 40
1
 40
1
 40
1
 40
1
 10
57.385994
 20
125.387691
 30
0.0
 10
62.725102
 20
129.638201
 30
0.0
 10
68.493694
 20
135.615808
 30
0.0
 10
72.596711
 20
141.149545
 30
0.0
  0
SPLINE
  5
1c1
100
AcDbEntity
  8
0
100
AcDbSpline
 70
8
 71
3
 72
8
 73
4
 74
0
 40
0
 40
0
 40
0
 40
0
 40
1
 40
1
 40
1
 40
1
 10
72.596711
 20
141.149545
 30
0.0
 10
74.756493
 20
144.062446
 30
0.0
 10
74.976304
 20
144.620357
 30
0.0
 10
75.202096
 20
147.762345
 30
0.0
  0
SPLINE
  5
1c2
100
AcDbEntity
  8
0
100
AcDbSpline
 70
8
 71
3
 72
8
 73
4
 74
0
 40
0
 40
0
 40
0
 40
0
 40
1
 40
1
 40
1
 40
1
 10
75.202096
 20
147.762345
 30
0.0
 10
76.118949
 20
160.520853
 30
0.0
 10
81.412241
 20
175.323922
 30
0.0
 10
88.465914
 20
184.855563
 30
0.0
  0
SPLINE
  5
1c3
100
AcDbEntity
  8
0
100
AcDbSpline
 70
8
 71
3
 72
8
 73
4
 74
0
 40
0
 40
0
 40
0
 40
0
 40
1
 40
1
 40
1
 40
1
 10
88.465914
 20
184.855563
 30
0.0
 10
91.762278
 20
189.309944
 30
0.0
 10
96.524160
 20
194.358005
 30
0.0
 10
96.760586
 20
193.648724
 30
0.0
  0
SPLINE
  5
1c4
100
AcDbEntity
  8
0
100
AcDbSpline
 70
8
 71
3
 72
8
 73
4
 74
0
 40
0
 40
0
 40
0
 40
0
 40
1
 40
1
 40
1
 40
1
 10
96.760586
 20
193.648724
 30
0.0
 10
96.825819
 20
193.453028
 30
0.0
 10
95.689493
 20
192.061260
 30
0.0
 10
94.235417
 20
190.555904
 30
0.0
  0
SPLINE
  5
1c5
100
AcDbEntity
  8
0
100
AcDbSpline
 70
8
 71
3
 72
8
 73
4
 74
0
 40
0
 40
0
 40
0
 40
0
 40
1
 40
1
 40
1
 40
1
 10
94.235417
 20
190.555904
 30
0.0
 10
91.757833
 20
187.990947
 30
0.0
 10
88.537830
 20
183.942489
 30
0.0
 10
86.872716
 20
181.298902
 30
0.0
  0
SPLINE
  5
1c6
100
AcDbEntity
  8
0
100
AcDbSpline
 70
8
 71
3
 72
8
 73
4
 74
0
 40
0
 40
0
 40
0
 40
0
 40
1
 40
1
 40
1
 40
1
 10
86.872716
 20
181.298902
 30
0.0
 10
80.845189
 20
171.729418
 30
0.0
 10
76.935175
 20
159.827895
 30
0.0
 10
75.621772
 20
147.052641
 30
0.0
  0
LINE
  5
1c7
100
AcDbEntity
  8
0
100
AcDbLine
 10
75.621772
 20
147.052641
 30
0.0
 11
75.260612
 21
143.539717
 31
0.0
  0
LINE
  5
1c8
100
AcDbEntity
  8
0
100
AcDbLine
 10
75.260612
 20
143.539717
 30
0.0
 11
73.151980
 21
140.702641
 31
0.0
  0
SPLINE
  5
1c9
100
AcDbEntity
  8
0
100
AcDbSpline
 70
8
 71
3
 72
8
 73
4
 74
0
 40
0
 40
0
 40
0
 40
0
 40
1
 40
1
 40
1
 40
1
 10
73.151980
 20
140.702641
 30
0.0
 10
68.359867
 20
134.255048
 30
0.0
 10
61.905656
 20
127.680597
 30
0.0
 10
56.887937
 20
124.135604
 30
0.0
  0
SPLINE
  5
1ca
100
AcDbEntity
  8
0
100
AcDbSpline
 70
8
 71
3
 72
8
 73
4
 74
0
 40
0
 40
0
 40
0
 40
0
 40
1
 40
1
 40
1
 40
1
 10
56.887937
 20
124.135604
 30
0.0
 10
55.009237
 20
122.808310
 30
0.0
 10
54.771270
 20
122.682856
 30
0.0
 10
54.771270
 20
123.019725
 30
0.0
  0
LINE
  5
1cb
100
AcDbEntity
  8
0
100
AcDbLine
 10
54.771270
 20
123.019725
 30
0.0
 11
54.771270
 21
123.019725
 31
0.0
  0
SPLINE
  5
1cc
100
AcDbEntity
  8
0
100
AcDbSpline
 70
8
 71
3
 72
8
 73
4
 74
0
 40
0
 40
0
 40
0
 40
0
 40
1
 40
1
 40
1
 40
1
 10
25.984603
 20
123.437457
 30
0.0
 10
25.984603
 20
123.495944
 30
0.0
 10
27.173013
 20
124.252983
 30
0.0
 10
28.625512
 20
125.119766
 30
0.0
  0
SPLINE
  5
1cd
100
AcDbEntity
  8
0
100
AcDbSpline
 70
8
 71
3
 72
8
 73
4
 74
0
 40
0
 40
0
 40
0
 40
0
 40
1
 40
1
 40
1
 40
1
 10
28.625512
 20
125.119766
 30
0.0
 10
31.577497
 20
126.881372
 30
0.0
 10
36.678328
 20
130.468704
 30
0.0
 10
39.667643
 20
132.885520
 30
0.0
  0
SPLINE
  5
1ce
100
AcDbEntity
  8
0
100
AcDbSpline
 70
8
 71
3
 72
8
 73
4
 74
0
 40
0
 40
0
 40
0
 40
0
 40
1
 40
1
 40
1
 40
1
 10
39.667643
 20
132.885520
 30
0.0
 10
45.496816
 20
137.598312
 30
0.0
 10
52.464897
 20
145.241435
 30
0.0
 10
57.474637
 20
152.417587
 30
0.0
  0
SPLINE
  5
1cf
100
AcDbEntity
  8
0
100
AcDbSpline
 70
8
 71
3
 72
8
 73
4
 74
0
 40
0
 40
0
 40
0
 40
0
 40
1
 40
1
 40
1
 40
1
 10
57.474637
 20
152.417587
 30
0.0
 10
58.998849
 20
154.600928
 30
0.0
 10
60.356084
 20
156.455374
 30
0.0
 10
60.490712
 20
156.538579
 30
0.0
  0
SPLINE
  5
1d0
100
AcDbEntity
  8
0
100
AcDbSpline
 70
8
 71
3
 72
8
 73
4
 74
0
 40
0
 40
0
 40
0
 40
0
 40
1
 40
1
 40
1
 40
1
 10
60.490712
 20
156.538579
 30
0.0
 10
61.305894
 20
157.042390
 30
0.0
 10
60.753481
 20
155.959727
 30
0.0
 10
58.567029
 20
152.768392
 30
0.0
  0
SPLINE
  5
1d1
100
AcDbEntity
  8
0
100
AcDbSpline
 70
8
 71
3
 72
8
 73
4
 74
0
 40
0
 40
0
 40
0
 40
0
 40
1
 40
1
 40
1
 40
1
 10
58.567029
 20
152.768392
 30
0.0
 10
50.475114
 20
140.957476
 30
0.0
 10
40.861756
 20
131.731626
 30
0.0
 10
29.395231
 20
124.772483
 30
0.0
  0
SPLINE
  5
1d2
100
AcDbEntity
  8
0
100
AcDbSpline
 70
8
 71
3
 72
8
 73
4
 74
0
 40
0
 40
0
 40
0
 40
0
 40
1
 40
1
 40
1
 40
1
 10
29.395231
 20
124.772483
 30
0.0
 10
27.387129
 20
123.553749
 30
0.0
 10
25.984603
 20
123.004756
 30
0.0
 10
25.984603
 20
123.437457
 30
0.0
  0
LINE
  5
1d3
100
AcDbEntity
  8
0
100
AcDbLine
 10
25.984603
 20
123.437457
 30
0.0
 11
25.984603
 21
123.437457
 31
0.0
  0
SPLINE
  5
1d4
100
AcDbEntity
  8
0
100
AcDbSpline
 70
8
 71
3
 72
8
 73
4
 74
0
 40
0
 40
0
 40
0
 40
0
 40
1
 40
1
 40
1
 40
1
 10
54.346447
 20
124.065184
 30
0.0
 10
57.445557
 20
128.744550
 30
0.0
 10
61.154169
 20
136.767902
 30
0.0
 10
63.365456
 20
143.577244
 30
0.0
  0
SPLINE
  5
1d5
100
AcDbEntity
  8
0
100
AcDbSpline
 70
8
 71
3
 72
8
 73
4
 74
0
 40
0
 40
0
 40
0
 40
0
 40
1
 40
1
 40
1
 40
1
 10
63.365456
 20
143.577244
 30
0.0
 10
63.838328
 20
145.033389
 30
0.0
 10
64.366826
 20
145.767996
 30
0.0
 10
64.366826
 20
144.969144
 30
0.0
  0
SPLINE
  5
1d6
100
AcDbEntity
  8
0
100
AcDbSpline
 70
8
 71
3
 72
8
 73
4
 74
0
 40
0
 40
0
 40
0
 40
0
 40
1
 40
1
 40
1
 40
1
 10
64.366826
 20
144.969144
 30
0.0
 10
64.366826
 20
144.410654
 30
0.0
 10
62.283509
 20
138.404534
 30
0.0
 10
61.070744
 20
135.466674
 30
0.0
  0
SPLINE
  5
1d7
100
AcDbEntity
  8
0
100
AcDbSpline
 70
8
 71
3
 72
8
 73
4
 74
0
 40
0
 40
0
 40
0
 40
0
 40
1
 40
1
 40
1
 40
1
 10
61.070744
 20
135.466674
 30
0.0
 10
59.845245
 20
132.497964
 30
0.0
 10
57.066702
 20
127.015258
 30
0.0
 10
55.878978
 20
125.222120
 30
0.0
  0
SPLINE
  5
1d8
100
AcDbEntity
  8
0
100
AcDbSpline
 70
8
 71
3
 72
8
 73
4
 74
0
 40
0
 40
0
 40
0
 40
0
 40
1
 40
1
 40
1
 40
1
 10
55.878978
 20
125.222120
 30
0.0
 10
55.390847
 20
124.485178
 30
0.0
 10
54.724421
 20
123.739307
 30
0.0
 10
54.398029
 20
123.564629
 30
0.0
  0
LINE
  5
1d9
100
AcDbEntity
  8
0
100
AcDbLine
 10
54.398029
 20
123.564629
 30
0.0
 11
53.804589
 21
123.247030
 31
0.0
  0
LINE
  5
1da
100
AcDbEntity
  8
0
100
AcDbLine
 10
53.804589
 20
123.247030
 30
0.0
 11
54.346447
 21
124.065184
 31
0.0
  0
LINE
  5
1db
100
AcDbEntity
  8
0
100
AcDbLine
 10
54.346447
 20
124.065184
 30
0.0
 11
54.346447
 21
124.065184
 31
0.0
  0
SPLINE
  5
1dc
100
AcDbEntity
  8
0
100
AcDbSpline
 70
8
 71
3
 72
8
 73
4
 74
0
 40
0
 40
0
 40
0
 40
0
 40
1
 40
1
 40
1
 40
1
 10
127.091130
 20
126.082785
 30
0.0
 10
124.523943
 20
127.658115
 30
0.0
 10
121.439534
 20
130.311487
 30
0.0
 10
119.133823
 20
132.928079
 30
0.0
  0
SPLINE
  5
1dd
100
AcDbEntity
  8
0
100
AcDbSpline
 70
8
 71
3
 72
8
 73
4
 74
0
 40
0
 40
0
 40
0
 40
0
 40
1
 40
1
 40
1
 40
1
 10
119.133823
 20
132.928079
 30
0.0
 10
115.653066
 20
136.878157
 30
0.0
 10
112.489550
 20
142.226573
 30
0.0
 10
112.182444
 20
144.680473
 30
0.0
  0
LINE
  5
1de
100
AcDbEntity
  8
0
100
AcDbLine
 10
112.182444
 20
144.680473
 30
0.0
 11
112.046365
 21
145.767785
 31
0.0
  0
LINE
  5
1df
100
AcDbEntity
  8
0
100
AcDbLine
 10
112.046365
 20
145.767785
 30
0.0
 11
112.529691
 21
144.780007
 31
0.0
  0
SPLINE
  5
1e0
100
AcDbEntity
  8
0
100
AcDbSpline
 70
8
 71
3
 72
8
 73
4
 74
0
 40
0
 40
0
 40
0
 40
0
 40
1
 40
1
 40
1
 40
1
 10
112.529691
 20
144.780007
 30
0.0
 10
112.795518
 20
144.236729
 30
0.0
 10
113.379402
 20
142.993676
 30
0.0
 10
113.827207
 20
142.017667
 30
0.0
  0
SPLINE
  5
1e1
100
AcDbEntity
  8
0
100
AcDbSpline
 70
8
 71
3
 72
8
 73
4
 74
0
 40
0
 40
0
 40
0
 40
0
 40
1
 40
1
 40
1
 40
1
 10
113.827207
 20
142.017667
 30
0.0
 10
116.054736
 20
137.162697
 30
0.0
 10
121.421638
 20
130.899014
 30
0.0
 10
126.343077
 20
127.410463
 30
0.0
  0
SPLINE
  5
1e2
100
AcDbEntity
  8
0
100
AcDbSpline
 70
8
 71
3
 72
8
 73
4
 74
0
 40
0
 40
0
 40
0
 40
0
 40
1
 40
1
 40
1
 40
1
 10
126.343077
 20
127.410463
 30
0.0
 10
127.804960
 20
126.374210
 30
0.0
 10
129.070842
 20
125.413435
 30
0.0
 10
129.156147
 20
125.275409
 30
0.0
  0
SPLINE
  5
1e3
100
AcDbEntity
  8
0
100
AcDbSpline
 70
8
 71
3
 72
8
 73
4
 74
0
 40
0
 40
0
 40
0
 40
0
 40
1
 40
1
 40
1
 40
1
 10
129.156147
 20
125.275409
 30
0.0
 10
129.463473
 20
124.778150
 30
0.0
 10
128.784739
 20
125.043518
 30
0.0
 10
127.091130
 20
126.082785
 30
0.0
  0
LINE
  5
1e4
100
AcDbEntity
  8
0
100
AcDbLine
 10
127.091130
 20
126.082785
 30
0.0
 11
127.091130
 21
126.082785
 31
0.0
  0
SPLINE
  5
1e5
100
AcDbEntity
  8
0
100
AcDbSpline
 70
8
 71
3
 72
8
 73
4
 74
0
 40
0
 40
0
 40
0
 40
0
 40
1
 40
1
 40
1
 40
1
 10
128.256803
 20
126.878776
 30
0.0
 10
125.124642
 20
130.240897
 30
0.0
 10
120.448358
 20
137.141242
 30
0.0
 10
118.695724
 20
140.987146
 30
0.0
  0
SPLINE
  5
1e6
100
AcDbEntity
  8
0
100
AcDbSpline
 70
8
 71
3
 72
8
 73
4
 74
0
 40
0
 40
0
 40
0
 40
0
 40
1
 40
1
 40
1
 40
1
 10
118.695724
 20
140.987146
 30
0.0
 10
116.901945
 20
144.923336
 30
0.0
 10
117.736279
 20
144.370864
 30
0.0
 10
119.827842
 20
140.237491
 30
0.0
  0
SPLINE
  5
1e7
100
AcDbEntity
  8
0
100
AcDbSpline
 70
8
 71
3
 72
8
 73
4
 74
0
 40
0
 40
0
 40
0
 40
0
 40
1
 40
1
 40
1
 40
1
 10
119.827842
 20
140.237491
 30
0.0
 10
121.398614
 20
137.133312
 30
0.0
 10
124.338374
 20
132.762017
 30
0.0
 10
127.457172
 20
128.893007
 30
0.0
  0
SPLINE
  5
1e8
100
AcDbEntity
  8
0
100
AcDbSpline
 70
8
 71
3
 72
8
 73
4
 74
0
 40
0
 40
0
 40
0
 40
0
 40
1
 40
1
 40
1
 40
1
 10
127.457172
 20
128.893007
 30
0.0
 10
130.009468
 20
125.726761
 30
0.0
 10
130.514014
 20
124.455841
 30
0.0
 10
128.256803
 20
126.878776
 30
0.0
  0
LINE
  5
1e9
100
AcDbEntity
  8
0
100
AcDbLine
 10
128.256803
 20
126.878776
 30
0.0
 11
128.256803
 21
126.878776
 31
0.0
  0
SPLINE
  5
1ea
100
AcDbEntity
  8
0
100
AcDbSpline
 70
8
 71
3
 72
8
 73
4
 74
0
 40
0
 40
0
 40
0
 40
0
 40
1
 40
1
 40
1
 40
1
 10
40.377937
 20
128.990853
 30
0.0
 10
40.765992
 20
129.328174
 30
0.0
 10
42.289992
 20
130.309314
 30
0.0
 10
43.764604
 20
131.171167
 30
0.0
  0
SPLINE
  5
1eb
100
AcDbEntity
  8
0
100
AcDbSpline
 70
8
 71
3
 72
8
 73
4
 74
0
 40
0
 40
0
 40
0
 40
0
 40
1
 40
1
 40
1
 40
1
 10
43.764604
 20
131.171167
 30
0.0
 10
49.458033
 20
134.498750
 30
0.0
 10
56.114391
 20
139.390999
 30
0.0
 10
61.663608
 20
144.326462
 30
0.0
  0
SPLINE
  5
1ec
100
AcDbEntity
  8
0
100
AcDbSpline
 70
8
 71
3
 72
8
 73
4
 74
0
 40
0
 40
0
 40
0
 40
0
 40
1
 40
1
 40
1
 40
1
 10
61.663608
 20
144.326462
 30
0.0
 10
62.692074
 20
145.241178
 30
0.0
 10
63.625786
 20
145.896495
 30
0.0
 10
63.738520
 20
145.782723
 30
0.0
  0
SPLINE
  5
1ed
100
AcDbEntity
  8
0
100
AcDbSpline
 70
8
 71
3
 72
8
 73
4
 74
0
 40
0
 40
0
 40
0
 40
0
 40
1
 40
1
 40
1
 40
1
 10
63.738520
 20
145.782723
 30
0.0
 10
64.288035
 20
145.228148
 30
0.0
 10
55.118406
 20
137.644213
 30
0.0
 10
49.170861
 20
133.734230
 30
0.0
  0
SPLINE
  5
1ee
100
AcDbEntity
  8
0
100
AcDbSpline
 70
8
 71
3
 72
8
 73
4
 74
0
 40
0
 40
0
 40
0
 40
0
 40
1
 40
1
 40
1
 40
1
 10
49.170861
 20
133.734230
 30
0.0
 10
45.403920
 20
131.257801
 30
0.0
 10
39.030650
 20
127.819716
 30
0.0
 10
40.377937
 20
128.990853
 30
0.0
  0
LINE
  5
1ef
100
AcDbEntity
  8
0
100
AcDbLine
 10
40.377937
 20
128.990853
 30
0.0
 11
40.377937
 21
128.990853
 31
0.0
  0
SPLINE
  5
1f0
100
AcDbEntity
  8
0
100
AcDbSpline
 70
8
 71
3
 72
8
 73
4
 74
0
 40
0
 40
0
 40
0
 40
0
 40
1
 40
1
 40
1
 40
1
 10
39.404270
 20
129.492266
 30
0.0
 10
39.551731
 20
129.621231
 30
0.0
 10
40.688381
 20
130.532554
 30
0.0
 10
41.930159
 20
131.517428
 30
0.0
  0
SPLINE
  5
1f1
100
AcDbEntity
  8
0
100
AcDbSpline
 70
8
 71
3
 72
8
 73
4
 74
0
 40
0
 40
0
 40
0
 40
0
 40
1
 40
1
 40
1
 40
1
 10
41.930159
 20
131.517428
 30
0.0
 10
44.904970
 20
133.876800
 30
0.0
 10
50.680688
 20
139.743009
 30
0.0
 10
53.633376
 20
143.404013
 30
0.0
  0
SPLINE
  5
1f2
100
AcDbEntity
  8
0
100
AcDbSpline
 70
8
 71
3
 72
8
 73
4
 74
0
 40
0
 40
0
 40
0
 40
0
 40
1
 40
1
 40
1
 40
1
 10
53.633376
 20
143.404013
 30
0.0
 10
57.076021
 20
147.672503
 30
0.0
 10
60.229437
 20
152.563016
 30
0.0
 10
62.421019
 20
157.032434
 30
0.0
  0
SPLINE
  5
1f3
100
AcDbEntity
  8
0
100
AcDbSpline
 70
8
 71
3
 72
8
 73
4
 74
0
 40
0
 40
0
 40
0
 40
0
 40
1
 40
1
 40
1
 40
1
 10
62.421019
 20
157.032434
 30
0.0
 10
64.429076
 20
161.127568
 30
0.0
 10
65.160548
 20
162.257877
 30
0.0
 10
64.811010
 20
160.725563
 30
0.0
  0
SPLINE
  5
1f4
100
AcDbEntity
  8
0
100
AcDbSpline
 70
8
 71
3
 72
8
 73
4
 74
0
 40
0
 40
0
 40
0
 40
0
 40
1
 40
1
 40
1
 40
1
 10
64.811010
 20
160.725563
 30
0.0
 10
64.131509
 20
157.746746
 30
0.0
 10
58.660467
 20
148.548089
 30
0.0
 10
54.320011
 20
143.086674
 30
0.0
  0
SPLINE
  5
1f5
100
AcDbEntity
  8
0
100
AcDbSpline
 70
8
 71
3
 72
8
 73
4
 74
0
 40
0
 40
0
 40
0
 40
0
 40
1
 40
1
 40
1
 40
1
 10
54.320011
 20
143.086674
 30
0.0
 10
51.544796
 20
139.594735
 30
0.0
 10
43.657102
 20
131.779155
 30
0.0
 10
41.533626
 20
130.417185
 30
0.0
  0
SPLINE
  5
1f6
100
AcDbEntity
  8
0
100
AcDbSpline
 70
8
 71
3
 72
8
 73
4
 74
0
 40
0
 40
0
 40
0
 40
0
 40
1
 40
1
 40
1
 40
1
 10
41.533626
 20
130.417185
 30
0.0
 10
39.933214
 20
129.390700
 30
0.0
 10
38.651620
 20
128.834022
 30
0.0
 10
39.404270
 20
129.492266
 30
0.0
  0
LINE
  5
1f7
100
AcDbEntity
  8
0
100
AcDbLine
 10
39.404270
 20
129.492266
 30
0.0
 11
39.404270
 21
129.492266
 31
0.0
  0
SPLINE
  5
1f8
100
AcDbEntity
  8
0
100
AcDbSpline
 70
8
 71
3
 72
8
 73
4
 74
0
 40
0
 40
0
 40
0
 40
0
 40
1
 40
1
 40
1
 40
1
 10
125.744819
 20
135.507345
 30
0.0
 10
123.428399
 20
137.370807
 30
0.0
 10
120.133516
 20
141.005248
 30
0.0
 10
118.926015
 20
143.028866
 30
0.0
  0
SPLINE
  5
1f9
100
AcDbEntity
  8
0
100
AcDbSpline
 70
8
 71
3
 72
8
 73
4
 74
0
 40
0
 40
0
 40
0
 40
0
 40
1
 40
1
 40
1
 40
1
 10
118.926015
 20
143.028866
 30
0.0
 10
117.684900
 20
145.108816
 30
0.0
 10
118.384024
 20
144.621096
 30
0.0
 10
120.661819
 20
141.817944
 30
0.0
  0
SPLINE
  5
1fa
100
AcDbEntity
  8
0
100
AcDbSpline
 70
8
 71
3
 72
8
 73
4
 74
0
 40
0
 40
0
 40
0
 40
0
 40
1
 40
1
 40
1
 40
1
 10
120.661819
 20
141.817944
 30
0.0
 10
121.865610
 20
140.336506
 30
0.0
 10
124.071473
 20
137.991535
 30
0.0
 10
125.563737
 20
136.606899
 30
0.0
  0
SPLINE
  5
1fb
100
AcDbEntity
  8
0
100
AcDbSpline
 70
8
 71
3
 72
8
 73
4
 74
0
 40
0
 40
0
 40
0
 40
0
 40
1
 40
1
 40
1
 40
1
 10
125.563737
 20
136.606899
 30
0.0
 10
127.055999
 20
135.222264
 30
0.0
 10
128.199752
 20
134.012193
 30
0.0
 10
128.105414
 20
133.917855
 30
0.0
  0
SPLINE
  5
1fc
100
AcDbEntity
  8
0
100
AcDbSpline
 70
8
 71
3
 72
8
 73
4
 74
0
 40
0
 40
0
 40
0
 40
0
 40
1
 40
1
 40
1
 40
1
 10
128.105414
 20
133.917855
 30
0.0
 10
128.011075
 20
133.823517
 30
0.0
 10
126.948808
 20
134.538786
 30
0.0
 10
125.744819
 20
135.507345
 30
0.0
  0
LINE
  5
1fd
100
AcDbEntity
  8
0
100
AcDbLine
 10
125.744819
 20
135.507345
 30
0.0
 11
125.744819
 21
135.507345
 31
0.0
  0
SPLINE
  5
1fe
100
AcDbEntity
  8
0
100
AcDbSpline
 70
8
 71
3
 72
8
 73
4
 74
0
 40
0
 40
0
 40
0
 40
0
 40
1
 40
1
 40
1
 40
1
 10
126.842774
 20
136.223103
 30
0.0
 10
123.409335
 20
140.226580
 30
0.0
 10
121.580614
 20
143.476188
 30
0.0
 10
120.469922
 20
147.547560
 30
0.0
  0
SPLINE
  5
1ff
100
AcDbEntity
  8
0
100
AcDbSpline
 70
8
 71
3
 72
8
 73
4
 74
0
 40
0
 40
0
 40
0
 40
0
 40
1
 40
1
 40
1
 40
1
 10
120.469922
 20
147.547560
 30
0.0
 10
119.583321
 20
150.797496
 30
0.0
 10
119.588461
 20
157.002145
 30
0.0
 10
120.480472
 20
160.290853
 30
0.0
  0
SPLINE
  5
200
100
AcDbEntity
  8
0
100
AcDbSpline
 70
8
 71
3
 72
8
 73
4
 74
0
 40
0
 40
0
 40
0
 40
0
 40
1
 40
1
 40
1
 40
1
 10
120.480472
 20
160.290853
 30
0.0
 10
121.625953
 20
164.514054
 30
0.0
 10
125.037088
 20
170.218858
 30
0.0
 10
128.184029
 20
173.174328
 30
0.0
  0
SPLINE
  5
201
100
AcDbEntity
  8
0
100
AcDbSpline
 70
8
 71
3
 72
8
 73
4
 74
0
 40
0
 40
0
 40
0
 40
0
 40
1
 40
1
 40
1
 40
1
 10
128.184029
 20
173.174328
 30
0.0
 10
129.988493
 20
174.869002
 30
0.0
 10
133.226454
 20
177.224158
 30
0.0
 10
134.028728
 20
177.425515
 30
0.0
  0
SPLINE
  5
202
100
AcDbEntity
  8
0
100
AcDbSpline
 70
8
 71
3
 72
8
 73
4
 74
0
 40
0
 40
0
 40
0
 40
0
 40
1
 40
1
 40
1
 40
1
 10
134.028728
 20
177.425515
 30
0.0
 10
135.083050
 20
177.690132
 30
0.0
 10
137.745258
 20
177.106593
 30
0.0
 10
142.707165
 20
175.523250
 30
0.0
  0
SPLINE
  5
203
100
AcDbEntity
  8
0
100
AcDbSpline
 70
8
 71
3
 72
8
 73
4
 74
0
 40
0
 40
0
 40
0
 40
0
 40
1
 40
1
 40
1
 40
1
 10
142.707165
 20
175.523250
 30
0.0
 10
145.177699
 20
174.734904
 30
0.0
 10
148.659548
 20
173.702228
 30
0.0
 10
150.444604
 20
173.228413
 30
0.0
  0
SPLINE
  5
204
100
AcDbEntity
  8
0
100
AcDbSpline
 70
8
 71
3
 72
8
 73
4
 74
0
 40
0
 40
0
 40
0
 40
0
 40
1
 40
1
 40
1
 40
1
 10
150.444604
 20
173.228413
 30
0.0
 10
157.212592
 20
171.431967
 30
0.0
 10
163.660085
 20
172.249345
 30
0.0
 10
168.769168
 20
175.551506
 30
0.0
  0
SPLINE
  5
205
100
AcDbEntity
  8
0
100
AcDbSpline
 70
8
 71
3
 72
8
 73
4
 74
0
 40
0
 40
0
 40
0
 40
0
 40
1
 40
1
 40
1
 40
1
 10
168.769168
 20
175.551506
 30
0.0
 10
170.862436
 20
176.904448
 30
0.0
 10
171.579201
 20
176.993512
 30
0.0
 10
170.140833
 20
175.721945
 30
0.0
  0
SPLINE
  5
206
100
AcDbEntity
  8
0
100
AcDbSpline
 70
8
 71
3
 72
8
 73
4
 74
0
 40
0
 40
0
 40
0
 40
0
 40
1
 40
1
 40
1
 40
1
 10
170.140833
 20
175.721945
 30
0.0
 10
168.706439
 20
174.453893
 30
0.0
 10
165.760900
 20
173.065715
 30
0.0
 10
163.050070
 20
172.380203
 30
0.0
  0
SPLINE
  5
207
100
AcDbEntity
  8
0
100
AcDbSpline
 70
8
 71
3
 72
8
 73
4
 74
0
 40
0
 40
0
 40
0
 40
0
 40
1
 40
1
 40
1
 40
1
 10
163.050070
 20
172.380203
 30
0.0
 10
161.098837
 20
171.886780
 30
0.0
 10
160.186268
 20
171.827849
 30
0.0
 10
156.392849
 20
171.950314
 30
0.0
  0
SPLINE
  5
208
100
AcDbEntity
  8
0
100
AcDbSpline
 70
8
 71
3
 72
8
 73
4
 74
0
 40
0
 40
0
 40
0
 40
0
 40
1
 40
1
 40
1
 40
1
 10
156.392849
 20
171.950314
 30
0.0
 10
151.576653
 20
172.105795
 30
0.0
 10
151.048054
 20
172.221371
 30
0.0
 10
141.445211
 20
175.218498
 30
0.0
  0
SPLINE
  5
209
100
AcDbEntity
  8
0
100
AcDbSpline
 70
8
 71
3
 72
8
 73
4
 74
0
 40
0
 40
0
 40
0
 40
0
 40
1
 40
1
 40
1
 40
1
 10
141.445211
 20
175.218498
 30
0.0
 10
138.901492
 20
176.012411
 30
0.0
 10
136.234492
 20
176.738894
 30
0.0
 10
135.518545
 20
176.832902
 30
0.0
  0
SPLINE
  5
20a
100
AcDbEntity
  8
0
100
AcDbSpline
 70
8
 71
3
 72
8
 73
4
 74
0
 40
0
 40
0
 40
0
 40
0
 40
1
 40
1
 40
1
 40
1
 10
135.518545
 20
176.832902
 30
0.0
 10
134.281872
 20
176.995281
 30
0.0
 10
134.118107
 20
176.930667
 30
0.0
 10
132.241270
 20
175.539794
 30
0.0
  0
SPLINE
  5
20b
100
AcDbEntity
  8
0
100
AcDbSpline
 70
8
 71
3
 72
8
 73
4
 74
0
 40
0
 40
0
 40
0
 40
0
 40
1
 40
1
 40
1
 40
1
 10
132.241270
 20
175.539794
 30
0.0
 10
125.568953
 20
170.595122
 30
0.0
 10
121.523593
 20
164.165967
 30
0.0
 10
120.389331
 20
156.703896
 30
0.0
  0
SPLINE
  5
20c
100
AcDbEntity
  8
0
100
AcDbSpline
 70
8
 71
3
 72
8
 73
4
 74
0
 40
0
 40
0
 40
0
 40
0
 40
1
 40
1
 40
1
 40
1
 10
120.389331
 20
156.703896
 30
0.0
 10
120.049098
 20
154.465577
 30
0.0
 10
120.048731
 20
153.721103
 30
0.0
 10
120.386757
 20
151.482785
 30
0.0
  0
SPLINE
  5
20d
100
AcDbEntity
  8
0
100
AcDbSpline
 70
8
 71
3
 72
8
 73
4
 74
0
 40
0
 40
0
 40
0
 40
0
 40
1
 40
1
 40
1
 40
1
 10
120.386757
 20
151.482785
 30
0.0
 10
121.187515
 20
146.180402
 30
0.0
 10
122.824474
 20
142.420869
 30
0.0
 10
126.193028
 20
138.147785
 30
0.0
  0
SPLINE
  5
20e
100
AcDbEntity
  8
0
100
AcDbSpline
 70
8
 71
3
 72
8
 73
4
 74
0
 40
0
 40
0
 40
0
 40
0
 40
1
 40
1
 40
1
 40
1
 10
126.193028
 20
138.147785
 30
0.0
 10
128.391243
 20
135.359299
 30
0.0
 10
128.869561
 20
134.620007
 30
0.0
 10
128.475483
 20
134.620007
 30
0.0
  0
SPLINE
  5
20f
100
AcDbEntity
  8
0
100
AcDbSpline
 70
8
 71
3
 72
8
 73
4
 74
0
 40
0
 40
0
 40
0
 40
0
 40
1
 40
1
 40
1
 40
1
 10
128.475483
 20
134.620007
 30
0.0
 10
128.333655
 20
134.620007
 30
0.0
 10
127.598935
 20
135.341401
 30
0.0
 10
126.842774
 20
136.223103
 30
0.0
  0
LINE
  5
210
100
AcDbEntity
  8
0
100
AcDbLine
 10
126.842774
 20
136.223103
 30
0.0
 11
126.842774
 21
136.223103
 31
0.0
  0
SPLINE
  5
211
100
AcDbEntity
  8
0
100
AcDbSpline
 70
8
 71
3
 72
8
 73
4
 74
0
 40
0
 40
0
 40
0
 40
0
 40
1
 40
1
 40
1
 40
1
 10
116.157903
 20
142.346591
 30
0.0
 10
115.165302
 20
144.591034
 30
0.0
 10
114.336994
 20
147.960550
 30
0.0
 10
114.093961
 20
150.742615
 30
0.0
  0
SPLINE
  5
212
100
AcDbEntity
  8
0
100
AcDbSpline
 70
8
 71
3
 72
8
 73
4
 74
0
 40
0
 40
0
 40
0
 40
0
 40
1
 40
1
 40
1
 40
1
 10
114.093961
 20
150.742615
 30
0.0
 10
113.823753
 20
153.835736
 30
0.0
 10
113.894300
 20
154.148357
 30
0.0
 10
114.837907
 20
154.039227
 30
0.0
  0
SPLINE
  5
213
100
AcDbEntity
  8
0
100
AcDbSpline
 70
8
 71
3
 72
8
 73
4
 74
0
 40
0
 40
0
 40
0
 40
0
 40
1
 40
1
 40
1
 40
1
 10
114.837907
 20
154.039227
 30
0.0
 10
115.471064
 20
153.966002
 30
0.0
 10
115.763156
 20
153.594778
 30
0.0
 10
116.682870
 20
151.694451
 30
0.0
  0
SPLINE
  5
214
100
AcDbEntity
  8
0
100
AcDbSpline
 70
8
 71
3
 72
8
 73
4
 74
0
 40
0
 40
0
 40
0
 40
0
 40
1
 40
1
 40
1
 40
1
 10
116.682870
 20
151.694451
 30
0.0
 10
117.283862
 20
150.452674
 30
0.0
 10
117.954713
 20
148.992174
 30
0.0
 10
118.173650
 20
148.448896
 30
0.0
  0
LINE
  5
215
100
AcDbEntity
  8
0
100
AcDbLine
 10
118.173650
 20
148.448896
 30
0.0
 11
118.571718
 21
147.461118
 31
0.0
  0
LINE
  5
216
100
AcDbEntity
  8
0
100
AcDbLine
 10
118.571718
 20
147.461118
 30
0.0
 11
117.966055
 21
148.166674
 31
0.0
  0
SPLINE
  5
217
100
AcDbEntity
  8
0
100
AcDbSpline
 70
8
 71
3
 72
8
 73
4
 74
0
 40
0
 40
0
 40
0
 40
0
 40
1
 40
1
 40
1
 40
1
 10
117.966055
 20
148.166674
 30
0.0
 10
117.632940
 20
148.554729
 30
0.0
 10
116.852076
 20
149.888229
 30
0.0
 10
116.230804
 20
151.130007
 30
0.0
  0
SPLINE
  5
218
100
AcDbEntity
  8
0
100
AcDbSpline
 70
8
 71
3
 72
8
 73
4
 74
0
 40
0
 40
0
 40
0
 40
0
 40
1
 40
1
 40
1
 40
1
 10
116.230804
 20
151.130007
 30
0.0
 10
114.889108
 20
153.811733
 30
0.0
 10
114.926336
 20
153.764134
 30
0.0
 10
114.581745
 20
153.238500
 30
0.0
  0
SPLINE
  5
219
100
AcDbEntity
  8
0
100
AcDbSpline
 70
8
 71
3
 72
8
 73
4
 74
0
 40
0
 40
0
 40
0
 40
0
 40
1
 40
1
 40
1
 40
1
 10
114.581745
 20
153.238500
 30
0.0
 10
114.089090
 20
152.487008
 30
0.0
 10
115.095536
 20
147.030227
 30
0.0
 10
116.474666
 20
142.975422
 30
0.0
  0
SPLINE
  5
21a
100
AcDbEntity
  8
0
100
AcDbSpline
 70
8
 71
3
 72
8
 73
4
 74
0
 40
0
 40
0
 40
0
 40
0
 40
1
 40
1
 40
1
 40
1
 10
116.474666
 20
142.975422
 30
0.0
 10
116.841242
 20
141.897646
 30
0.0
 10
117.079584
 20
140.954248
 30
0.0
 10
117.004318
 20
140.878979
 30
0.0
  0
SPLINE
  5
21b
100
AcDbEntity
  8
0
100
AcDbSpline
 70
8
 71
3
 72
8
 73
4
 74
0
 40
0
 40
0
 40
0
 40
0
 40
1
 40
1
 40
1
 40
1
 10
117.004318
 20
140.878979
 30
0.0
 10
116.929052
 20
140.803713
 30
0.0
 10
116.548165
 20
141.464139
 30
0.0
 10
116.157903
 20
142.346591
 30
0.0
  0
LINE
  5
21c
100
AcDbEntity
  8
0
100
AcDbLine
 10
116.157903
 20
142.346591
 30
0.0
 11
116.157903
 21
142.346591
 31
0.0
  0
SPLINE
  5
21d
100
AcDbEntity
  8
0
100
AcDbSpline
 70
8
 71
3
 72
8
 73
4
 74
0
 40
0
 40
0
 40
0
 40
0
 40
1
 40
1
 40
1
 40
1
 10
37.979048
 20
147.430590
 30
0.0
 10
38.599937
 20
147.649067
 30
0.0
 10
40.060437
 20
148.044144
 30
0.0
 10
41.224604
 20
148.308541
 30
0.0
  0
SPLINE
  5
21e
100
AcDbEntity
  8
0
100
AcDbSpline
 70
8
 71
3
 72
8
 73
4
 74
0
 40
0
 40
0
 40
0
 40
0
 40
1
 40
1
 40
1
 40
1
 10
41.224604
 20
148.308541
 30
0.0
 10
45.905465
 20
149.371624
 30
0.0
 10
52.706778
 20
152.437825
 30
0.0
 10
57.734604
 20
155.751661
 30
0.0
  0
SPLINE
  5
21f
100
AcDbEntity
  8
0
100
AcDbSpline
 70
8
 71
3
 72
8
 73
4
 74
0
 40
0
 40
0
 40
0
 40
0
 40
1
 40
1
 40
1
 40
1
 10
57.734604
 20
155.751661
 30
0.0
 10
59.131604
 20
156.672422
 30
0.0
 10
60.326741
 20
157.375255
 30
0.0
 10
60.390467
 20
157.313510
 30
0.0
  0
SPLINE
  5
220
100
AcDbEntity
  8
0
100
AcDbSpline
 70
8
 71
3
 72
8
 73
4
 74
0
 40
0
 40
0
 40
0
 40
0
 40
1
 40
1
 40
1
 40
1
 10
60.390467
 20
157.313510
 30
0.0
 10
60.625126
 20
157.086138
 30
0.0
 10
59.378339
 20
155.974699
 30
0.0
 10
57.593492
 20
154.820170
 30
0.0
  0
SPLINE
  5
221
100
AcDbEntity
  8
0
100
AcDbSpline
 70
8
 71
3
 72
8
 73
4
 74
0
 40
0
 40
0
 40
0
 40
0
 40
1
 40
1
 40
1
 40
1
 10
57.593492
 20
154.820170
 30
0.0
 10
51.394699
 20
150.810472
 30
0.0
 10
43.430269
 20
147.617845
 30
0.0
 10
38.543492
 20
147.183773
 30
0.0
  0
LINE
  5
222
100
AcDbEntity
  8
0
100
AcDbLine
 10
38.543492
 20
147.183773
 30
0.0
 11
36.850159
 21
147.033360
 31
0.0
  0
LINE
  5
223
100
AcDbEntity
  8
0
100
AcDbLine
 10
36.850159
 20
147.033360
 30
0.0
 11
37.979048
 21
147.430590
 31
0.0
  0
LINE
  5
224
100
AcDbEntity
  8
0
100
AcDbLine
 10
37.979048
 20
147.430590
 30
0.0
 11
37.979048
 21
147.430590
 31
0.0
  0
SPLINE
  5
225
100
AcDbEntity
  8
0
100
AcDbSpline
 70
8
 71
3
 72
8
 73
4
 74
0
 40
0
 40
0
 40
0
 40
0
 40
1
 40
1
 40
1
 40
1
 10
37.910742
 20
148.805232
 30
0.0
 10
46.142281
 20
153.301284
 30
0.0
 10
52.664580
 20
160.969609
 30
0.0
 10
63.172371
 20
178.505563
 30
0.0
  0
SPLINE
  5
226
100
AcDbEntity
  8
0
100
AcDbSpline
 70
8
 71
3
 72
8
 73
4
 74
0
 40
0
 40
0
 40
0
 40
0
 40
1
 40
1
 40
1
 40
1
 10
63.172371
 20
178.505563
 30
0.0
 10
69.166291
 20
188.508534
 30
0.0
 10
70.890965
 20
191.206607
 30
0.0
 10
73.841607
 20
195.196464
 30
0.0
  0
SPLINE
  5
227
100
AcDbEntity
  8
0
100
AcDbSpline
 70
8
 71
3
 72
8
 73
4
 74
0
 40
0
 40
0
 40
0
 40
0
 40
1
 40
1
 40
1
 40
1
 10
73.841607
 20
195.196464
 30
0.0
 10
75.877349
 20
197.949200
 30
0.0
 10
80.085142
 20
202.212528
 30
0.0
 10
80.986991
 20
202.436156
 30
0.0
  0
SPLINE
  5
228
100
AcDbEntity
  8
0
100
AcDbSpline
 70
8
 71
3
 72
8
 73
4
 74
0
 40
0
 40
0
 40
0
 40
0
 40
1
 40
1
 40
1
 40
1
 10
80.986991
 20
202.436156
 30
0.0
 10
81.466597
 20
202.555081
 30
0.0
 10
80.877986
 20
201.812687
 30
0.0
 10
78.950673
 20
199.867832
 30
0.0
  0
SPLINE
  5
229
100
AcDbEntity
  8
0
100
AcDbSpline
 70
8
 71
3
 72
8
 73
4
 74
0
 40
0
 40
0
 40
0
 40
0
 40
1
 40
1
 40
1
 40
1
 10
78.950673
 20
199.867832
 30
0.0
 10
74.422056
 20
195.297994
 30
0.0
 10
72.154248
 20
192.078600
 30
0.0
 10
64.499067
 20
179.352229
 30
0.0
  0
SPLINE
  5
22a
100
AcDbEntity
  8
0
100
AcDbSpline
 70
8
 71
3
 72
8
 73
4
 74
0
 40
0
 40
0
 40
0
 40
0
 40
1
 40
1
 40
1
 40
1
 10
64.499067
 20
179.352229
 30
0.0
 10
59.682789
 20
171.345398
 30
0.0
 10
55.860668
 20
165.469278
 30
0.0
 10
52.974903
 20
161.634993
 30
0.0
  0
SPLINE
  5
22b
100
AcDbEntity
  8
0
100
AcDbSpline
 70
8
 71
3
 72
8
 73
4
 74
0
 40
0
 40
0
 40
0
 40
0
 40
1
 40
1
 40
1
 40
1
 10
52.974903
 20
161.634993
 30
0.0
 10
48.252820
 20
155.360817
 30
0.0
 10
42.764078
 20
150.361045
 30
0.0
 10
38.334383
 20
148.298742
 30
0.0
  0
SPLINE
  5
22c
100
AcDbEntity
  8
0
100
AcDbSpline
 70
8
 71
3
 72
8
 73
4
 74
0
 40
0
 40
0
 40
0
 40
0
 40
1
 40
1
 40
1
 40
1
 10
38.334383
 20
148.298742
 30
0.0
 10
35.874099
 20
147.153327
 30
0.0
 10
35.564358
 20
147.523642
 30
0.0
 10
37.910742
 20
148.805232
 30
0.0
  0
LINE
  5
22d
100
AcDbEntity
  8
0
100
AcDbLine
 10
37.910742
 20
148.805232
 30
0.0
 11
37.910742
 21
148.805232
 31
0.0
  0
SPLINE
  5
22e
100
AcDbEntity
  8
0
100
AcDbSpline
 70
8
 71
3
 72
8
 73
4
 74
0
 40
0
 40
0
 40
0
 40
0
 40
1
 40
1
 40
1
 40
1
 10
118.506666
 20
149.185866
 30
0.0
 10
117.897261
 20
150.626587
 30
0.0
 10
118.077034
 20
157.748124
 30
0.0
 10
118.797967
 20
160.725563
 30
0.0
  0
SPLINE
  5
22f
100
AcDbEntity
  8
0
100
AcDbSpline
 70
8
 71
3
 72
8
 73
4
 74
0
 40
0
 40
0
 40
0
 40
0
 40
1
 40
1
 40
1
 40
1
 10
118.797967
 20
160.725563
 30
0.0
 10
119.618221
 20
164.113183
 30
0.0
 10
121.986748
 20
168.874470
 30
0.0
 10
124.288928
 20
171.763663
 30
0.0
  0
SPLINE
  5
230
100
AcDbEntity
  8
0
100
AcDbSpline
 70
8
 71
3
 72
8
 73
4
 74
0
 40
0
 40
0
 40
0
 40
0
 40
1
 40
1
 40
1
 40
1
 10
124.288928
 20
171.763663
 30
0.0
 10
126.366422
 20
174.370880
 30
0.0
 10
129.944966
 20
177.522405
 30
0.0
 10
130.811973
 20
177.508322
 30
0.0
  0
SPLINE
  5
231
100
AcDbEntity
  8
0
100
AcDbSpline
 70
8
 71
3
 72
8
 73
4
 74
0
 40
0
 40
0
 40
0
 40
0
 40
1
 40
1
 40
1
 40
1
 10
130.811973
 20
177.508322
 30
0.0
 10
131.290647
 20
177.500547
 30
0.0
 10
131.193182
 20
177.338156
 30
0.0
 10
130.265715
 20
176.598192
 30
0.0
  0
SPLINE
  5
232
100
AcDbEntity
  8
0
100
AcDbSpline
 70
8
 71
3
 72
8
 73
4
 74
0
 40
0
 40
0
 40
0
 40
0
 40
1
 40
1
 40
1
 40
1
 10
130.265715
 20
176.598192
 30
0.0
 10
123.005695
 20
170.805897
 30
0.0
 10
119.041474
 20
163.469615
 30
0.0
 10
118.638783
 20
155.081118
 30
0.0
  0
SPLINE
  5
233
100
AcDbEntity
  8
0
100
AcDbSpline
 70
8
 71
3
 72
8
 73
4
 74
0
 40
0
 40
0
 40
0
 40
0
 40
1
 40
1
 40
1
 40
1
 10
118.638783
 20
155.081118
 30
0.0
 10
118.553439
 20
153.303313
 30
0.0
 10
118.623656
 20
151.262784
 30
0.0
 10
118.803098
 20
150.306110
 30
0.0
  0
SPLINE
  5
234
100
AcDbEntity
  8
0
100
AcDbSpline
 70
8
 71
3
 72
8
 73
4
 74
0
 40
0
 40
0
 40
0
 40
0
 40
1
 40
1
 40
1
 40
1
 10
118.803098
 20
150.306110
 30
0.0
 10
119.153799
 20
148.436368
 30
0.0
 10
119.026762
 20
147.956283
 30
0.0
 10
118.506666
 20
149.185866
 30
0.0
  0
LINE
  5
235
100
AcDbEntity
  8
0
100
AcDbLine
 10
118.506666
 20
149.185866
 30
0.0
 11
118.506666
 21
149.185866
 31
0.0
  0
SPLINE
  5
236
100
AcDbEntity
  8
0
100
AcDbSpline
 70
8
 71
3
 72
8
 73
4
 74
0
 40
0
 40
0
 40
0
 40
0
 40
1
 40
1
 40
1
 40
1
 10
47.574604
 20
151.965904
 30
0.0
 10
48.040270
 20
152.357039
 30
0.0
 10
49.183270
 20
153.078376
 30
0.0
 10
50.114604
 20
153.568875
 30
0.0
  0
SPLINE
  5
237
100
AcDbEntity
  8
0
100
AcDbSpline
 70
8
 71
3
 72
8
 73
4
 74
0
 40
0
 40
0
 40
0
 40
0
 40
1
 40
1
 40
1
 40
1
 10
50.114604
 20
153.568875
 30
0.0
 10
51.045937
 20
154.059378
 30
0.0
 10
54.220937
 20
155.983941
 30
0.0
 10
57.170159
 20
157.845682
 30
0.0
  0
SPLINE
  5
238
100
AcDbEntity
  8
0
100
AcDbSpline
 70
8
 71
3
 72
8
 73
4
 74
0
 40
0
 40
0
 40
0
 40
0
 40
1
 40
1
 40
1
 40
1
 10
57.170159
 20
157.845682
 30
0.0
 10
64.069674
 20
162.201111
 30
0.0
 10
63.724578
 20
161.995563
 30
0.0
 10
64.137390
 20
161.995563
 30
0.0
  0
SPLINE
  5
239
100
AcDbEntity
  8
0
100
AcDbSpline
 70
8
 71
3
 72
8
 73
4
 74
0
 40
0
 40
0
 40
0
 40
0
 40
1
 40
1
 40
1
 40
1
 10
64.137390
 20
161.995563
 30
0.0
 10
64.806370
 20
161.995563
 30
0.0
 10
63.399072
 20
160.951984
 30
0.0
 10
58.722381
 20
157.980077
 30
0.0
  0
SPLINE
  5
23a
100
AcDbEntity
  8
0
100
AcDbSpline
 70
8
 71
3
 72
8
 73
4
 74
0
 40
0
 40
0
 40
0
 40
0
 40
1
 40
1
 40
1
 40
1
 10
58.722381
 20
157.980077
 30
0.0
 10
53.561003
 20
154.700160
 30
0.0
 10
49.459182
 20
152.332669
 30
0.0
 10
47.810784
 20
151.682113
 30
0.0
  0
LINE
  5
23b
100
AcDbEntity
  8
0
100
AcDbLine
 10
47.810784
 20
151.682113
 30
0.0
 11
46.727937
 21
151.254752
 31
0.0
  0
LINE
  5
23c
100
AcDbEntity
  8
0
100
AcDbLine
 10
46.727937
 20
151.254752
 30
0.0
 11
47.574604
 21
151.965904
 31
0.0
  0
LINE
  5
23d
100
AcDbEntity
  8
0
100
AcDbLine
 10
47.574604
 20
151.965904
 30
0.0
 11
47.574604
 21
151.965904
 31
0.0
  0
SPLINE
  5
23e
100
AcDbEntity
  8
0
100
AcDbSpline
 70
8
 71
3
 72
8
 73
4
 74
0
 40
0
 40
0
 40
0
 40
0
 40
1
 40
1
 40
1
 40
1
 10
46.304604
 20
152.213918
 30
0.0
 10
46.304604
 20
152.266792
 30
0.0
 10
47.266233
 20
153.124042
 30
0.0
 10
48.441559
 20
154.118918
 30
0.0
  0
SPLINE
  5
23f
100
AcDbEntity
  8
0
100
AcDbSpline
 70
8
 71
3
 72
8
 73
4
 74
0
 40
0
 40
0
 40
0
 40
0
 40
1
 40
1
 40
1
 40
1
 10
48.441559
 20
154.118918
 30
0.0
 10
53.023036
 20
157.996993
 30
0.0
 10
57.143873
 20
163.660688
 30
0.0
 10
63.926235
 20
175.401118
 30
0.0
  0
SPLINE
  5
240
100
AcDbEntity
  8
0
100
AcDbSpline
 70
8
 71
3
 72
8
 73
4
 74
0
 40
0
 40
0
 40
0
 40
0
 40
1
 40
1
 40
1
 40
1
 10
63.926235
 20
175.401118
 30
0.0
 10
72.981659
 20
191.076279
 30
0.0
 10
76.649332
 20
196.412509
 30
0.0
 10
81.447547
 20
200.893512
 30
0.0
  0
SPLINE
  5
241
100
AcDbEntity
  8
0
100
AcDbSpline
 70
8
 71
3
 72
8
 73
4
 74
0
 40
0
 40
0
 40
0
 40
0
 40
1
 40
1
 40
1
 40
1
 10
81.447547
 20
200.893512
 30
0.0
 10
84.553659
 20
203.794279
 30
0.0
 10
89.210569
 20
206.708416
 30
0.0
 10
89.766826
 20
206.099440
 30
0.0
  0
SPLINE
  5
242
100
AcDbEntity
  8
0
100
AcDbSpline
 70
8
 71
3
 72
8
 73
4
 74
0
 40
0
 40
0
 40
0
 40
0
 40
1
 40
1
 40
1
 40
1
 10
89.766826
 20
206.099440
 30
0.0
 10
89.844437
 20
206.014474
 30
0.0
 10
89.773368
 20
205.896319
 30
0.0
 10
89.608894
 20
205.836874
 30
0.0
  0
SPLINE
  5
243
100
AcDbEntity
  8
0
100
AcDbSpline
 70
8
 71
3
 72
8
 73
4
 74
0
 40
0
 40
0
 40
0
 40
0
 40
1
 40
1
 40
1
 40
1
 10
89.608894
 20
205.836874
 30
0.0
 10
88.430362
 20
205.410927
 30
0.0
 10
83.763431
 20
202.017837
 30
0.0
 10
81.844856
 20
200.192035
 30
0.0
  0
SPLINE
  5
244
100
AcDbEntity
  8
0
100
AcDbSpline
 70
8
 71
3
 72
8
 73
4
 74
0
 40
0
 40
0
 40
0
 40
0
 40
1
 40
1
 40
1
 40
1
 10
81.844856
 20
200.192035
 30
0.0
 10
76.932279
 20
195.517007
 30
0.0
 10
73.286685
 20
190.278025
 30
0.0
 10
65.477599
 20
176.671118
 30
0.0
  0
SPLINE
  5
245
100
AcDbEntity
  8
0
100
AcDbSpline
 70
8
 71
3
 72
8
 73
4
 74
0
 40
0
 40
0
 40
0
 40
0
 40
1
 40
1
 40
1
 40
1
 10
65.477599
 20
176.671118
 30
0.0
 10
59.124147
 20
165.600576
 30
0.0
 10
55.748095
 20
160.593324
 30
0.0
 10
51.845885
 20
156.453000
 30
0.0
  0
SPLINE
  5
246
100
AcDbEntity
  8
0
100
AcDbSpline
 70
8
 71
3
 72
8
 73
4
 74
0
 40
0
 40
0
 40
0
 40
0
 40
1
 40
1
 40
1
 40
1
 10
51.845885
 20
156.453000
 30
0.0
 10
49.412593
 20
153.871229
 30
0.0
 10
46.304604
 20
151.493616
 30
0.0
 10
46.304604
 20
152.213918
 30
0.0
  0
LINE
  5
247
100
AcDbEntity
  8
0
100
AcDbLine
 10
46.304604
 20
152.213918
 30
0.0
 11
46.304604
 21
152.213918
 31
0.0
  0
SPLINE
  5
248
100
AcDbEntity
  8
0
100
AcDbSpline
 70
8
 71
3
 72
8
 73
4
 74
0
 40
0
 40
0
 40
0
 40
0
 40
1
 40
1
 40
1
 40
1
 10
153.831270
 20
173.481341
 30
0.0
 10
151.812083
 20
173.824828
 30
0.0
 10
148.037146
 20
174.999431
 30
0.0
 10
143.066914
 20
176.830763
 30
0.0
  0
SPLINE
  5
249
100
AcDbEntity
  8
0
100
AcDbSpline
 70
8
 71
3
 72
8
 73
4
 74
0
 40
0
 40
0
 40
0
 40
0
 40
1
 40
1
 40
1
 40
1
 10
143.066914
 20
176.830763
 30
0.0
 10
134.390006
 20
180.027849
 30
0.0
 10
130.697162
 20
180.775199
 30
0.0
 10
124.582326
 20
180.571627
 30
0.0
  0
SPLINE
  5
24a
100
AcDbEntity
  8
0
100
AcDbSpline
 70
8
 71
3
 72
8
 73
4
 74
0
 40
0
 40
0
 40
0
 40
0
 40
1
 40
1
 40
1
 40
1
 10
124.582326
 20
180.571627
 30
0.0
 10
122.670686
 20
180.507986
 30
0.0
 10
121.262411
 20
180.554891
 30
0.0
 10
121.452832
 20
180.675863
 30
0.0
  0
SPLINE
  5
24b
100
AcDbEntity
  8
0
100
AcDbSpline
 70
8
 71
3
 72
8
 73
4
 74
0
 40
0
 40
0
 40
0
 40
0
 40
1
 40
1
 40
1
 40
1
 10
121.452832
 20
180.675863
 30
0.0
 10
121.643250
 20
180.796832
 30
0.0
 10
123.912269
 20
180.897754
 30
0.0
 10
126.495093
 20
180.900131
 30
0.0
  0
SPLINE
  5
24c
100
AcDbEntity
  8
0
100
AcDbSpline
 70
8
 71
3
 72
8
 73
4
 74
0
 40
0
 40
0
 40
0
 40
0
 40
1
 40
1
 40
1
 40
1
 10
126.495093
 20
180.900131
 30
0.0
 10
133.228074
 20
180.906325
 30
0.0
 10
135.230481
 20
180.476947
 30
0.0
 10
144.517937
 20
177.035470
 30
0.0
  0
SPLINE
  5
24d
100
AcDbEntity
  8
0
100
AcDbSpline
 70
8
 71
3
 72
8
 73
4
 74
0
 40
0
 40
0
 40
0
 40
0
 40
1
 40
1
 40
1
 40
1
 10
144.517937
 20
177.035470
 30
0.0
 10
147.234326
 20
176.028907
 30
0.0
 10
150.837209
 20
174.842688
 30
0.0
 10
152.524341
 20
174.399427
 30
0.0
  0
SPLINE
  5
24e
100
AcDbEntity
  8
0
100
AcDbSpline
 70
8
 71
3
 72
8
 73
4
 74
0
 40
0
 40
0
 40
0
 40
0
 40
1
 40
1
 40
1
 40
1
 10
152.524341
 20
174.399427
 30
0.0
 10
154.211474
 20
173.956166
 30
0.0
 10
155.661391
 20
173.523962
 30
0.0
 10
155.746377
 20
173.438974
 30
0.0
  0
SPLINE
  5
24f
100
AcDbEntity
  8
0
100
AcDbSpline
 70
8
 71
3
 72
8
 73
4
 74
0
 40
0
 40
0
 40
0
 40
0
 40
1
 40
1
 40
1
 40
1
 10
155.746377
 20
173.438974
 30
0.0
 10
155.915165
 20
173.270185
 30
0.0
 10
154.946590
 20
173.291614
 30
0.0
 10
153.831270
 20
173.481341
 30
0.0
  0
LINE
  5
250
100
AcDbEntity
  8
0
100
AcDbLine
 10
153.831270
 20
173.481341
 30
0.0
 11
153.831270
 21
173.481341
 31
0.0
  0
SPLINE
  5
251
100
AcDbEntity
  8
0
100
AcDbSpline
 70
8
 71
3
 72
8
 73
4
 74
0
 40
0
 40
0
 40
0
 40
0
 40
1
 40
1
 40
1
 40
1
 10
153.797717
 20
174.802432
 30
0.0
 10
152.770318
 20
175.165107
 30
0.0
 10
149.785818
 20
176.742238
 30
0.0
 10
147.165495
 20
178.307166
 30
0.0
  0
SPLINE
  5
252
100
AcDbEntity
  8
0
100
AcDbSpline
 70
8
 71
3
 72
8
 73
4
 74
0
 40
0
 40
0
 40
0
 40
0
 40
1
 40
1
 40
1
 40
1
 10
147.165495
 20
178.307166
 30
0.0
 10
139.871868
 20
182.663114
 30
0.0
 10
137.542442
 20
183.597515
 30
0.0
 10
133.158492
 20
183.925776
 30
0.0
  0
SPLINE
  5
253
100
AcDbEntity
  8
0
100
AcDbSpline
 70
8
 71
3
 72
8
 73
4
 74
0
 40
0
 40
0
 40
0
 40
0
 40
1
 40
1
 40
1
 40
1
 10
133.158492
 20
183.925776
 30
0.0
 10
131.128364
 20
184.077789
 30
0.0
 10
130.971270
 20
184.135066
 30
0.0
 10
130.971270
 20
184.723254
 30
0.0
  0
SPLINE
  5
254
100
AcDbEntity
  8
0
100
AcDbSpline
 70
8
 71
3
 72
8
 73
4
 74
0
 40
0
 40
0
 40
0
 40
0
 40
1
 40
1
 40
1
 40
1
 10
130.971270
 20
184.723254
 30
0.0
 10
130.971270
 20
185.259719
 30
0.0
 10
131.289013
 20
185.462919
 30
0.0
 10
133.042031
 20
186.047531
 30
0.0
  0
SPLINE
  5
255
100
AcDbEntity
  8
0
100
AcDbSpline
 70
8
 71
3
 72
8
 73
4
 74
0
 40
0
 40
0
 40
0
 40
0
 40
1
 40
1
 40
1
 40
1
 10
133.042031
 20
186.047531
 30
0.0
 10
135.608509
 20
186.903421
 30
0.0
 10
138.609186
 20
188.675477
 30
0.0
 10
142.824604
 20
191.824651
 30
0.0
  0
SPLINE
  5
256
100
AcDbEntity
  8
0
100
AcDbSpline
 70
8
 71
3
 72
8
 73
4
 74
0
 40
0
 40
0
 40
0
 40
0
 40
1
 40
1
 40
1
 40
1
 10
142.824604
 20
191.824651
 30
0.0
 10
146.486375
 20
194.560217
 30
0.0
 10
149.781500
 20
196.273670
 30
0.0
 10
152.279048
 20
196.740925
 30
0.0
  0
SPLINE
  5
257
100
AcDbEntity
  8
0
100
AcDbSpline
 70
8
 71
3
 72
8
 73
4
 74
0
 40
0
 40
0
 40
0
 40
0
 40
1
 40
1
 40
1
 40
1
 10
152.279048
 20
196.740925
 30
0.0
 10
155.619436
 20
197.365867
 30
0.0
 10
160.752474
 20
196.752844
 30
0.0
 10
165.825715
 20
195.123089
 30
0.0
  0
SPLINE
  5
258
100
AcDbEntity
  8
0
100
AcDbSpline
 70
8
 71
3
 72
8
 73
4
 74
0
 40
0
 40
0
 40
0
 40
0
 40
1
 40
1
 40
1
 40
1
 10
165.825715
 20
195.123089
 30
0.0
 10
170.414820
 20
193.648862
 30
0.0
 10
178.177311
 20
189.375134
 30
0.0
 10
177.510533
 20
188.689873
 30
0.0
  0
SPLINE
  5
259
100
AcDbEntity
  8
0
100
AcDbSpline
 70
8
 71
3
 72
8
 73
4
 74
0
 40
0
 40
0
 40
0
 40
0
 40
1
 40
1
 40
1
 40
1
 10
177.510533
 20
188.689873
 30
0.0
 10
177.417851
 20
188.594623
 30
0.0
 10
176.480600
 20
189.094343
 30
0.0
 10
175.427744
 20
189.800361
 30
0.0
  0
SPLINE
  5
25a
100
AcDbEntity
  8
0
100
AcDbSpline
 70
8
 71
3
 72
8
 73
4
 74
0
 40
0
 40
0
 40
0
 40
0
 40
1
 40
1
 40
1
 40
1
 10
175.427744
 20
189.800361
 30
0.0
 10
170.124958
 20
193.356265
 30
0.0
 10
161.112942
 20
196.410892
 30
0.0
 10
155.891272
 20
196.422251
 30
0.0
  0
SPLINE
  5
25b
100
AcDbEntity
  8
0
100
AcDbSpline
 70
8
 71
3
 72
8
 73
4
 74
0
 40
0
 40
0
 40
0
 40
0
 40
1
 40
1
 40
1
 40
1
 10
155.891272
 20
196.422251
 30
0.0
 10
151.541031
 20
196.431717
 30
0.0
 10
148.725983
 20
195.276677
 30
0.0
 10
143.227081
 20
191.226021
 30
0.0
  0
SPLINE
  5
25c
100
AcDbEntity
  8
0
100
AcDbSpline
 70
8
 71
3
 72
8
 73
4
 74
0
 40
0
 40
0
 40
0
 40
0
 40
1
 40
1
 40
1
 40
1
 10
143.227081
 20
191.226021
 30
0.0
 10
138.787869
 20
187.955966
 30
0.0
 10
135.693127
 20
186.163138
 30
0.0
 10
133.129841
 20
185.376553
 30
0.0
  0
SPLINE
  5
25d
100
AcDbEntity
  8
0
100
AcDbSpline
 70
8
 71
3
 72
8
 73
4
 74
0
 40
0
 40
0
 40
0
 40
0
 40
1
 40
1
 40
1
 40
1
 10
133.129841
 20
185.376553
 30
0.0
 10
130.809608
 20
184.664552
 30
0.0
 10
131.065995
 20
184.301755
 30
0.0
 10
133.893868
 20
184.295439
 30
0.0
  0
SPLINE
  5
25e
100
AcDbEntity
  8
0
100
AcDbSpline
 70
8
 71
3
 72
8
 73
4
 74
0
 40
0
 40
0
 40
0
 40
0
 40
1
 40
1
 40
1
 40
1
 10
133.893868
 20
184.295439
 30
0.0
 10
137.597391
 20
184.287167
 30
0.0
 10
140.477062
 20
183.171591
 30
0.0
 10
147.057937
 20
179.195717
 30
0.0
  0
SPLINE
  5
25f
100
AcDbEntity
  8
0
100
AcDbSpline
 70
8
 71
3
 72
8
 73
4
 74
0
 40
0
 40
0
 40
0
 40
0
 40
1
 40
1
 40
1
 40
1
 10
147.057937
 20
179.195717
 30
0.0
 10
151.426040
 20
176.556700
 30
0.0
 10
152.989399
 20
175.733119
 30
0.0
 10
155.375333
 20
174.814096
 30
0.0
  0
SPLINE
  5
260
100
AcDbEntity
  8
0
100
AcDbSpline
 70
8
 71
3
 72
8
 73
4
 74
0
 40
0
 40
0
 40
0
 40
0
 40
1
 40
1
 40
1
 40
1
 10
155.375333
 20
174.814096
 30
0.0
 10
157.673235
 20
173.928979
 30
0.0
 10
156.300805
 20
173.918833
 30
0.0
 10
153.797717
 20
174.802432
 30
0.0
  0
LINE
  5
261
100
AcDbEntity
  8
0
100
AcDbLine
 10
153.797717
 20
174.802432
 30
0.0
 11
153.797717
 21
174.802432
 31
0.0
  0
SPLINE
  5
262
100
AcDbEntity
  8
0
100
AcDbSpline
 70
8
 71
3
 72
8
 73
4
 74
0
 40
0
 40
0
 40
0
 40
0
 40
1
 40
1
 40
1
 40
1
 10
157.500159
 20
175.123948
 30
0.0
 10
155.581062
 20
175.595442
 30
0.0
 10
151.576391
 20
177.459924
 30
0.0
 10
147.481270
 20
179.788511
 30
0.0
  0
SPLINE
  5
263
100
AcDbEntity
  8
0
100
AcDbSpline
 70
8
 71
3
 72
8
 73
4
 74
0
 40
0
 40
0
 40
0
 40
0
 40
1
 40
1
 40
1
 40
1
 10
147.481270
 20
179.788511
 30
0.0
 10
143.388517
 20
182.115752
 30
0.0
 10
139.582110
 20
183.960605
 30
0.0
 10
138.097381
 20
184.336598
 30
0.0
  0
SPLINE
  5
264
100
AcDbEntity
  8
0
100
AcDbSpline
 70
8
 71
3
 72
8
 73
4
 74
0
 40
0
 40
0
 40
0
 40
0
 40
1
 40
1
 40
1
 40
1
 10
138.097381
 20
184.336598
 30
0.0
 10
136.658432
 20
184.701001
 30
0.0
 10
136.467616
 20
185.281470
 30
0.0
 10
137.861113
 20
185.055336
 30
0.0
  0
SPLINE
  5
265
100
AcDbEntity
  8
0
100
AcDbSpline
 70
8
 71
3
 72
8
 73
4
 74
0
 40
0
 40
0
 40
0
 40
0
 40
1
 40
1
 40
1
 40
1
 10
137.861113
 20
185.055336
 30
0.0
 10
139.280612
 20
184.824984
 30
0.0
 10
142.818677
 20
183.201467
 30
0.0
 10
146.944100
 20
180.887416
 30
0.0
  0
SPLINE
  5
266
100
AcDbEntity
  8
0
100
AcDbSpline
 70
8
 71
3
 72
8
 73
4
 74
0
 40
0
 40
0
 40
0
 40
0
 40
1
 40
1
 40
1
 40
1
 10
146.944100
 20
180.887416
 30
0.0
 10
152.103534
 20
177.993360
 30
0.0
 10
155.310075
 20
176.474979
 30
0.0
 10
157.994048
 20
175.654977
 30
0.0
  0
SPLINE
  5
267
100
AcDbEntity
  8
0
100
AcDbSpline
 70
8
 71
3
 72
8
 73
4
 74
0
 40
0
 40
0
 40
0
 40
0
 40
1
 40
1
 40
1
 40
1
 10
157.994048
 20
175.654977
 30
0.0
 10
159.274631
 20
175.263735
 30
0.0
 10
160.322381
 20
174.887812
 30
0.0
 10
160.322381
 20
174.819596
 30
0.0
  0
SPLINE
  5
268
100
AcDbEntity
  8
0
100
AcDbSpline
 70
8
 71
3
 72
8
 73
4
 74
0
 40
0
 40
0
 40
0
 40
0
 40
1
 40
1
 40
1
 40
1
 10
160.322381
 20
174.819596
 30
0.0
 10
160.322381
 20
174.599951
 30
0.0
 10
159.093569
 20
174.732469
 30
0.0
 10
157.500159
 20
175.123948
 30
0.0
  0
LINE
  5
269
100
AcDbEntity
  8
0
100
AcDbLine
 10
157.500159
 20
175.123948
 30
0.0
 11
157.500159
 21
175.123948
 31
0.0
  0
SPLINE
  5
26a
100
AcDbEntity
  8
0
100
AcDbSpline
 70
8
 71
3
 72
8
 73
4
 74
0
 40
0
 40
0
 40
0
 40
0
 40
1
 40
1
 40
1
 40
1
 10
158.848208
 20
176.089754
 30
0.0
 10
156.167816
 20
177.137581
 30
0.0
 10
151.994955
 20
180.700597
 30
0.0
 10
150.845957
 20
182.922510
 30
0.0
  0
SPLINE
  5
26b
100
AcDbEntity
  8
0
100
AcDbSpline
 70
8
 71
3
 72
8
 73
4
 74
0
 40
0
 40
0
 40
0
 40
0
 40
1
 40
1
 40
1
 40
1
 10
150.845957
 20
182.922510
 30
0.0
 10
150.270842
 20
184.034663
 30
0.0
 10
148.718865
 20
184.381821
 30
0.0
 10
144.998262
 20
184.230573
 30
0.0
  0
SPLINE
  5
26c
100
AcDbEntity
  8
0
100
AcDbSpline
 70
8
 71
3
 72
8
 73
4
 74
0
 40
0
 40
0
 40
0
 40
0
 40
1
 40
1
 40
1
 40
1
 10
144.998262
 20
184.230573
 30
0.0
 10
143.322164
 20
184.162436
 30
0.0
 10
141.885918
 20
184.211684
 30
0.0
 10
141.806605
 20
184.340013
 30
0.0
  0
SPLINE
  5
26d
100
AcDbEntity
  8
0
100
AcDbSpline
 70
8
 71
3
 72
8
 73
4
 74
0
 40
0
 40
0
 40
0
 40
0
 40
1
 40
1
 40
1
 40
1
 10
141.806605
 20
184.340013
 30
0.0
 10
141.727295
 20
184.468342
 30
0.0
 10
143.628739
 20
184.573340
 30
0.0
 10
146.032037
 20
184.573340
 30
0.0
  0
LINE
  5
26e
100
AcDbEntity
  8
0
100
AcDbLine
 10
146.032037
 20
184.573340
 30
0.0
 11
150.401672
 21
184.573340
 31
0.0
  0
LINE
  5
26f
100
AcDbEntity
  8
0
100
AcDbLine
 10
150.401672
 20
184.573340
 30
0.0
 11
151.058138
 21
183.677293
 31
0.0
  0
SPLINE
  5
270
100
AcDbEntity
  8
0
100
AcDbSpline
 70
8
 71
3
 72
8
 73
4
 74
0
 40
0
 40
0
 40
0
 40
0
 40
1
 40
1
 40
1
 40
1
 10
151.058138
 20
183.677293
 30
0.0
 10
151.419193
 20
183.184465
 30
0.0
 10
152.730604
 20
181.746230
 30
0.0
 10
153.972381
 20
180.481214
 30
0.0
  0
SPLINE
  5
271
100
AcDbEntity
  8
0
100
AcDbSpline
 70
8
 71
3
 72
8
 73
4
 74
0
 40
0
 40
0
 40
0
 40
0
 40
1
 40
1
 40
1
 40
1
 10
153.972381
 20
180.481214
 30
0.0
 10
155.749320
 20
178.671021
 30
0.0
 10
156.739107
 20
177.927162
 30
0.0
 10
158.619915
 20
176.988432
 30
0.0
  0
SPLINE
  5
272
100
AcDbEntity
  8
0
100
AcDbSpline
 70
8
 71
3
 72
8
 73
4
 74
0
 40
0
 40
0
 40
0
 40
0
 40
1
 40
1
 40
1
 40
1
 10
158.619915
 20
176.988432
 30
0.0
 10
159.934283
 20
176.332418
 30
0.0
 10
161.066700
 20
175.738653
 30
0.0
 10
161.136398
 20
175.668953
 30
0.0
  0
SPLINE
  5
273
100
AcDbEntity
  8
0
100
AcDbSpline
 70
8
 71
3
 72
8
 73
4
 74
0
 40
0
 40
0
 40
0
 40
0
 40
1
 40
1
 40
1
 40
1
 10
161.136398
 20
175.668953
 30
0.0
 10
161.444799
 20
175.360551
 30
0.0
 10
160.063959
 20
175.614489
 30
0.0
 10
158.848208
 20
176.089754
 30
0.0
  0
LINE
  5
274
100
AcDbEntity
  8
0
100
AcDbLine
 10
158.848208
 20
176.089754
 30
0.0
 11
158.848208
 21
176.089754
 31
0.0
  0
SPLINE
  5
275
100
AcDbEntity
  8
0
100
AcDbSpline
 70
8
 71
3
 72
8
 73
4
 74
0
 40
0
 40
0
 40
0
 40
0
 40
1
 40
1
 40
1
 40
1
 10
161.934350
 20
176.090223
 30
0.0
 10
158.985345
 20
177.045935
 30
0.0
 10
153.903386
 20
180.598805
 30
0.0
 10
152.957623
 20
182.365976
 30
0.0
  0
SPLINE
  5
276
100
AcDbEntity
  8
0
100
AcDbSpline
 70
8
 71
3
 72
8
 73
4
 74
0
 40
0
 40
0
 40
0
 40
0
 40
1
 40
1
 40
1
 40
1
 10
152.957623
 20
182.365976
 30
0.0
 10
152.318971
 20
183.559310
 30
0.0
 10
153.052633
 20
183.156867
 30
0.0
 10
155.202117
 20
181.134790
 30
0.0
  0
SPLINE
  5
277
100
AcDbEntity
  8
0
100
AcDbSpline
 70
8
 71
3
 72
8
 73
4
 74
0
 40
0
 40
0
 40
0
 40
0
 40
1
 40
1
 40
1
 40
1
 10
155.202117
 20
181.134790
 30
0.0
 10
159.912214
 20
176.703867
 30
0.0
 10
165.337273
 20
175.048397
 30
0.0
 10
169.009015
 20
176.921579
 30
0.0
  0
SPLINE
  5
278
100
AcDbEntity
  8
0
100
AcDbSpline
 70
8
 71
3
 72
8
 73
4
 74
0
 40
0
 40
0
 40
0
 40
0
 40
1
 40
1
 40
1
 40
1
 10
169.009015
 20
176.921579
 30
0.0
 10
170.472478
 20
177.668184
 30
0.0
 10
170.590012
 20
177.240321
 30
0.0
 10
169.163625
 20
176.358763
 30
0.0
  0
SPLINE
  5
279
100
AcDbEntity
  8
0
100
AcDbSpline
 70
8
 71
3
 72
8
 73
4
 74
0
 40
0
 40
0
 40
0
 40
0
 40
1
 40
1
 40
1
 40
1
 10
169.163625
 20
176.358763
 30
0.0
 10
167.728618
 20
175.471880
 30
0.0
 10
164.241982
 20
175.342362
 30
0.0
 10
161.934350
 20
176.090223
 30
0.0
  0
LINE
  5
27a
100
AcDbEntity
  8
0
100
AcDbLine
 10
161.934350
 20
176.090223
 30
0.0
 11
161.934350
 21
176.090223
 31
0.0
  0
SPLINE
  5
27b
100
AcDbEntity
  8
0
100
AcDbSpline
 70
8
 71
3
 72
8
 73
4
 74
0
 40
0
 40
0
 40
0
 40
0
 40
1
 40
1
 40
1
 40
1
 10
111.111933
 20
177.793493
 30
0.0
 10
111.704515
 20
178.415045
 30
0.0
 10
115.834044
 20
178.753732
 30
0.0
 10
122.786826
 20
178.751020
 30
0.0
  0
SPLINE
  5
27c
100
AcDbEntity
  8
0
100
AcDbSpline
 70
8
 71
3
 72
8
 73
4
 74
0
 40
0
 40
0
 40
0
 40
0
 40
1
 40
1
 40
1
 40
1
 10
122.786826
 20
178.751020
 30
0.0
 10
127.559328
 20
178.749160
 30
0.0
 10
129.919837
 20
178.643911
 30
0.0
 10
130.406826
 20
178.411261
 30
0.0
  0
SPLINE
  5
27d
100
AcDbEntity
  8
0
100
AcDbSpline
 70
8
 71
3
 72
8
 73
4
 74
0
 40
0
 40
0
 40
0
 40
0
 40
1
 40
1
 40
1
 40
1
 10
130.406826
 20
178.411261
 30
0.0
 10
130.974533
 20
178.140054
 30
0.0
 10
130.533417
 20
178.116339
 30
0.0
 10
128.149048
 20
178.289880
 30
0.0
  0
SPLINE
  5
27e
100
AcDbEntity
  8
0
100
AcDbSpline
 70
8
 71
3
 72
8
 73
4
 74
0
 40
0
 40
0
 40
0
 40
0
 40
1
 40
1
 40
1
 40
1
 10
128.149048
 20
178.289880
 30
0.0
 10
123.014588
 20
178.663584
 30
0.0
 10
115.501877
 20
178.358861
 30
0.0
 10
111.639048
 20
177.620217
 30
0.0
  0
SPLINE
  5
27f
100
AcDbEntity
  8
0
100
AcDbSpline
 70
8
 71
3
 72
8
 73
4
 74
0
 40
0
 40
0
 40
0
 40
0
 40
1
 40
1
 40
1
 40
1
 10
111.639048
 20
177.620217
 30
0.0
 10
110.990975
 20
177.496294
 30
0.0
 10
110.867334
 20
177.536936
 30
0.0
 10
111.111933
 20
177.793493
 30
0.0
  0
LINE
  5
280
100
AcDbEntity
  8
0
100
AcDbLine
 10
111.111933
 20
177.793493
 30
0.0
 11
111.111933
 21
177.793493
 31
0.0
  0
SPLINE
  5
281
100
AcDbEntity
  8
0
100
AcDbSpline
 70
8
 71
3
 72
8
 73
4
 74
0
 40
0
 40
0
 40
0
 40
0
 40
1
 40
1
 40
1
 40
1
 10
110.588992
 20
178.804151
 30
0.0
 10
110.934260
 20
179.045984
 30
0.0
 10
112.486635
 20
179.806886
 30
0.0
 10
114.038716
 20
180.495043
 30
0.0
  0
SPLINE
  5
282
100
AcDbEntity
  8
0
100
AcDbSpline
 70
8
 71
3
 72
8
 73
4
 74
0
 40
0
 40
0
 40
0
 40
0
 40
1
 40
1
 40
1
 40
1
 10
114.038716
 20
180.495043
 30
0.0
 10
126.524887
 20
186.031111
 30
0.0
 10
134.319998
 20
191.587835
 30
0.0
 10
138.381684
 20
197.847860
 30
0.0
  0
SPLINE
  5
283
100
AcDbEntity
  8
0
100
AcDbSpline
 70
8
 71
3
 72
8
 73
4
 74
0
 40
0
 40
0
 40
0
 40
0
 40
1
 40
1
 40
1
 40
1
 10
138.381684
 20
197.847860
 30
0.0
 10
140.326700
 20
200.845596
 30
0.0
 10
140.821757
 20
201.846376
 30
0.0
 10
141.989914
 20
205.142071
 30
0.0
  0
SPLINE
  5
284
100
AcDbEntity
  8
0
100
AcDbSpline
 70
8
 71
3
 72
8
 73
4
 74
0
 40
0
 40
0
 40
0
 40
0
 40
1
 40
1
 40
1
 40
1
 10
141.989914
 20
205.142071
 30
0.0
 10
142.506062
 20
206.598265
 30
0.0
 10
143.224778
 20
208.226484
 30
0.0
 10
143.587061
 20
208.760341
 30
0.0
  0
LINE
  5
285
100
AcDbEntity
  8
0
100
AcDbLine
 10
143.587061
 20
208.760341
 30
0.0
 11
144.245762
 21
209.730988
 31
0.0
  0
LINE
  5
286
100
AcDbEntity
  8
0
100
AcDbLine
 10
144.245762
 20
209.730988
 30
0.0
 11
143.669667
 21
210.540037
 31
0.0
  0
SPLINE
  5
287
100
AcDbEntity
  8
0
100
AcDbSpline
 70
8
 71
3
 72
8
 73
4
 74
0
 40
0
 40
0
 40
0
 40
0
 40
1
 40
1
 40
1
 40
1
 10
143.669667
 20
210.540037
 30
0.0
 10
141.085576
 20
214.169056
 30
0.0
 10
133.300270
 20
218.446777
 30
0.0
 10
124.721058
 20
220.951559
 30
0.0
  0
SPLINE
  5
288
100
AcDbEntity
  8
0
100
AcDbSpline
 70
8
 71
3
 72
8
 73
4
 74
0
 40
0
 40
0
 40
0
 40
0
 40
1
 40
1
 40
1
 40
1
 10
124.721058
 20
220.951559
 30
0.0
 10
121.709352
 20
221.830853
 30
0.0
 10
120.271136
 20
222.629415
 30
0.0
 10
122.363492
 20
222.260585
 30
0.0
  0
SPLINE
  5
289
100
AcDbEntity
  8
0
100
AcDbSpline
 70
8
 71
3
 72
8
 73
4
 74
0
 40
0
 40
0
 40
0
 40
0
 40
1
 40
1
 40
1
 40
1
 10
122.363492
 20
222.260585
 30
0.0
 10
125.587577
 20
221.692260
 30
0.0
 10
133.504717
 20
218.670032
 30
0.0
 10
137.247582
 20
216.578847
 30
0.0
  0
SPLINE
  5
28a
100
AcDbEntity
  8
0
100
AcDbSpline
 70
8
 71
3
 72
8
 73
4
 74
0
 40
0
 40
0
 40
0
 40
0
 40
1
 40
1
 40
1
 40
1
 10
137.247582
 20
216.578847
 30
0.0
 10
141.634769
 20
214.127674
 30
0.0
 10
144.941095
 20
210.971899
 30
0.0
 10
144.672705
 20
209.491816
 30
0.0
  0
SPLINE
  5
28b
100
AcDbEntity
  8
0
100
AcDbSpline
 70
8
 71
3
 72
8
 73
4
 74
0
 40
0
 40
0
 40
0
 40
0
 40
1
 40
1
 40
1
 40
1
 10
144.672705
 20
209.491816
 30
0.0
 10
144.601235
 20
209.097684
 30
0.0
 10
144.353404
 20
208.565980
 30
0.0
 10
144.121971
 20
208.310247
 30
0.0
  0
SPLINE
  5
28c
100
AcDbEntity
  8
0
100
AcDbSpline
 70
8
 71
3
 72
8
 73
4
 74
0
 40
0
 40
0
 40
0
 40
0
 40
1
 40
1
 40
1
 40
1
 10
144.121971
 20
208.310247
 30
0.0
 10
143.890537
 20
208.054514
 30
0.0
 10
143.298937
 20
206.704843
 30
0.0
 10
142.807309
 20
205.310976
 30
0.0
  0
SPLINE
  5
28d
100
AcDbEntity
  8
0
100
AcDbSpline
 70
8
 71
3
 72
8
 73
4
 74
0
 40
0
 40
0
 40
0
 40
0
 40
1
 40
1
 40
1
 40
1
 10
142.807309
 20
205.310976
 30
0.0
 10
139.666277
 20
196.405544
 30
0.0
 10
134.275751
 20
190.473182
 30
0.0
 10
124.124093
 20
184.749794
 30
0.0
  0
SPLINE
  5
28e
100
AcDbEntity
  8
0
100
AcDbSpline
 70
8
 71
3
 72
8
 73
4
 74
0
 40
0
 40
0
 40
0
 40
0
 40
1
 40
1
 40
1
 40
1
 10
124.124093
 20
184.749794
 30
0.0
 10
118.119824
 20
181.364657
 30
0.0
 10
107.726254
 20
176.799013
 30
0.0
 10
110.588992
 20
178.804151
 30
0.0
  0
LINE
  5
28f
100
AcDbEntity
  8
0
100
AcDbLine
 10
110.588992
 20
178.804151
 30
0.0
 11
110.588992
 21
178.804151
 31
0.0
  0
SPLINE
  5
290
100
AcDbEntity
  8
0
100
AcDbSpline
 70
8
 71
3
 72
8
 73
4
 74
0
 40
0
 40
0
 40
0
 40
0
 40
1
 40
1
 40
1
 40
1
 10
120.246826
 20
181.309830
 30
0.0
 10
120.246826
 20
181.377566
 30
0.0
 10
121.484932
 20
182.019483
 30
0.0
 10
122.998171
 20
182.736311
 30
0.0
  0
SPLINE
  5
291
100
AcDbEntity
  8
0
100
AcDbSpline
 70
8
 71
3
 72
8
 73
4
 74
0
 40
0
 40
0
 40
0
 40
0
 40
1
 40
1
 40
1
 40
1
 10
122.998171
 20
182.736311
 30
0.0
 10
129.075744
 20
185.615285
 30
0.0
 10
135.799028
 20
190.992784
 30
0.0
 10
138.790307
 20
195.367372
 30
0.0
  0
SPLINE
  5
292
100
AcDbEntity
  8
0
100
AcDbSpline
 70
8
 71
3
 72
8
 73
4
 74
0
 40
0
 40
0
 40
0
 40
0
 40
1
 40
1
 40
1
 40
1
 10
138.790307
 20
195.367372
 30
0.0
 10
141.061454
 20
198.688800
 30
0.0
 10
141.866095
 20
200.325195
 30
0.0
 10
142.988355
 20
203.904916
 30
0.0
  0
SPLINE
  5
293
100
AcDbEntity
  8
0
100
AcDbSpline
 70
8
 71
3
 72
8
 73
4
 74
0
 40
0
 40
0
 40
0
 40
0
 40
1
 40
1
 40
1
 40
1
 10
142.988355
 20
203.904916
 30
0.0
 10
144.216459
 20
207.822248
 30
0.0
 10
144.966365
 20
208.844451
 30
0.0
 10
146.612082
 20
208.844451
 30
0.0
  0
SPLINE
  5
294
100
AcDbEntity
  8
0
100
AcDbSpline
 70
8
 71
3
 72
8
 73
4
 74
0
 40
0
 40
0
 40
0
 40
0
 40
1
 40
1
 40
1
 40
1
 10
146.612082
 20
208.844451
 30
0.0
 10
147.368446
 20
208.844451
 30
0.0
 10
147.894246
 20
208.597369
 30
0.0
 10
148.714107
 20
207.856674
 30
0.0
  0
SPLINE
  5
295
100
AcDbEntity
  8
0
100
AcDbSpline
 70
8
 71
3
 72
8
 73
4
 74
0
 40
0
 40
0
 40
0
 40
0
 40
1
 40
1
 40
1
 40
1
 10
148.714107
 20
207.856674
 30
0.0
 10
149.360015
 20
207.273134
 30
0.0
 10
150.101294
 20
206.868896
 30
0.0
 10
150.525457
 20
206.868896
 30
0.0
  0
SPLINE
  5
296
100
AcDbEntity
  8
0
100
AcDbSpline
 70
8
 71
3
 72
8
 73
4
 74
0
 40
0
 40
0
 40
0
 40
0
 40
1
 40
1
 40
1
 40
1
 10
150.525457
 20
206.868896
 30
0.0
 10
150.920357
 20
206.868896
 30
0.0
 10
153.127464
 20
206.220852
 30
0.0
 10
155.430141
 20
205.428795
 30
0.0
  0
SPLINE
  5
297
100
AcDbEntity
  8
0
100
AcDbSpline
 70
8
 71
3
 72
8
 73
4
 74
0
 40
0
 40
0
 40
0
 40
0
 40
1
 40
1
 40
1
 40
1
 10
155.430141
 20
205.428795
 30
0.0
 10
169.578494
 20
200.562166
 30
0.0
 10
176.528913
 20
195.952907
 30
0.0
 10
178.048025
 20
190.429451
 30
0.0
  0
SPLINE
  5
298
100
AcDbEntity
  8
0
100
AcDbSpline
 70
8
 71
3
 72
8
 73
4
 74
0
 40
0
 40
0
 40
0
 40
0
 40
1
 40
1
 40
1
 40
1
 10
178.048025
 20
190.429451
 30
0.0
 10
178.388357
 20
189.192062
 30
0.0
 10
177.961186
 20
188.963468
 30
0.0
 10
177.512734
 20
190.142990
 30
0.0
  0
SPLINE
  5
299
100
AcDbEntity
  8
0
100
AcDbSpline
 70
8
 71
3
 72
8
 73
4
 74
0
 40
0
 40
0
 40
0
 40
0
 40
1
 40
1
 40
1
 40
1
 10
177.512734
 20
190.142990
 30
0.0
 10
175.676608
 20
194.972337
 30
0.0
 10
170.669452
 20
198.802296
 30
0.0
 10
161.374921
 20
202.486747
 30
0.0
  0
SPLINE
  5
29a
100
AcDbEntity
  8
0
100
AcDbSpline
 70
8
 71
3
 72
8
 73
4
 74
0
 40
0
 40
0
 40
0
 40
0
 40
1
 40
1
 40
1
 40
1
 10
161.374921
 20
202.486747
 30
0.0
 10
156.975395
 20
204.230764
 30
0.0
 10
150.155072
 20
206.583586
 30
0.0
 10
149.494085
 20
206.585302
 30
0.0
  0
SPLINE
  5
29b
100
AcDbEntity
  8
0
100
AcDbSpline
 70
8
 71
3
 72
8
 73
4
 74
0
 40
0
 40
0
 40
0
 40
0
 40
1
 40
1
 40
1
 40
1
 10
149.494085
 20
206.585302
 30
0.0
 10
149.204130
 20
206.586058
 30
0.0
 10
148.532960
 20
206.967674
 30
0.0
 10
148.002597
 20
207.433340
 30
0.0
  0
SPLINE
  5
29c
100
AcDbEntity
  8
0
100
AcDbSpline
 70
8
 71
3
 72
8
 73
4
 74
0
 40
0
 40
0
 40
0
 40
0
 40
1
 40
1
 40
1
 40
1
 10
148.002597
 20
207.433340
 30
0.0
 10
147.472231
 20
207.899007
 30
0.0
 10
146.812477
 20
208.280007
 30
0.0
 10
146.536472
 20
208.280007
 30
0.0
  0
SPLINE
  5
29d
100
AcDbEntity
  8
0
100
AcDbSpline
 70
8
 71
3
 72
8
 73
4
 74
0
 40
0
 40
0
 40
0
 40
0
 40
1
 40
1
 40
1
 40
1
 10
146.536472
 20
208.280007
 30
0.0
 10
145.508986
 20
208.280007
 30
0.0
 10
144.557081
 20
206.791841
 30
0.0
 10
143.666046
 20
203.792501
 30
0.0
  0
SPLINE
  5
29e
100
AcDbEntity
  8
0
100
AcDbSpline
 70
8
 71
3
 72
8
 73
4
 74
0
 40
0
 40
0
 40
0
 40
0
 40
1
 40
1
 40
1
 40
1
 10
143.666046
 20
203.792501
 30
0.0
 10
143.188783
 20
202.185980
 30
0.0
 10
142.471084
 20
200.220706
 30
0.0
 10
142.071152
 20
199.425225
 30
0.0
  0
SPLINE
  5
29f
100
AcDbEntity
  8
0
100
AcDbSpline
 70
8
 71
3
 72
8
 73
4
 74
0
 40
0
 40
0
 40
0
 40
0
 40
1
 40
1
 40
1
 40
1
 10
142.071152
 20
199.425225
 30
0.0
 10
139.499811
 20
194.310704
 30
0.0
 10
135.241676
 20
189.563681
 30
0.0
 10
130.082629
 20
186.060273
 30
0.0
  0
SPLINE
  5
2a0
100
AcDbEntity
  8
0
100
AcDbSpline
 70
8
 71
3
 72
8
 73
4
 74
0
 40
0
 40
0
 40
0
 40
0
 40
1
 40
1
 40
1
 40
1
 10
130.082629
 20
186.060273
 30
0.0
 10
125.971622
 20
183.268565
 30
0.0
 10
120.246826
 20
180.503637
 30
0.0
 10
120.246826
 20
181.309830
 30
0.0
  0
LINE
  5
2a1
100
AcDbEntity
  8
0
100
AcDbLine
 10
120.246826
 20
181.309830
 30
0.0
 11
120.246826
 21
181.309830
 31
0.0
  0
SPLINE
  5
2a2
100
AcDbEntity
  8
0
100
AcDbSpline
 70
8
 71
3
 72
8
 73
4
 74
0
 40
0
 40
0
 40
0
 40
0
 40
1
 40
1
 40
1
 40
1
 10
155.947937
 20
183.282665
 30
0.0
 10
154.550937
 20
183.479791
 30
0.0
 10
153.249187
 20
183.583245
 30
0.0
 10
153.055159
 20
183.512569
 30
0.0
  0
SPLINE
  5
2a3
100
AcDbEntity
  8
0
100
AcDbSpline
 70
8
 71
3
 72
8
 73
4
 74
0
 40
0
 40
0
 40
0
 40
0
 40
1
 40
1
 40
1
 40
1
 10
153.055159
 20
183.512569
 30
0.0
 10
152.861131
 20
183.441889
 30
0.0
 10
152.702381
 20
183.524651
 30
0.0
 10
152.702381
 20
183.696479
 30
0.0
  0
SPLINE
  5
2a4
100
AcDbEntity
  8
0
100
AcDbSpline
 70
8
 71
3
 72
8
 73
4
 74
0
 40
0
 40
0
 40
0
 40
0
 40
1
 40
1
 40
1
 40
1
 10
152.702381
 20
183.696479
 30
0.0
 10
152.702381
 20
184.114117
 30
0.0
 10
153.715181
 20
184.090921
 30
0.0
 10
158.204459
 20
183.570469
 30
0.0
  0
SPLINE
  5
2a5
100
AcDbEntity
  8
0
100
AcDbSpline
 70
8
 71
3
 72
8
 73
4
 74
0
 40
0
 40
0
 40
0
 40
0
 40
1
 40
1
 40
1
 40
1
 10
158.204459
 20
183.570469
 30
0.0
 10
163.413254
 20
182.966601
 30
0.0
 10
166.344975
 20
183.542964
 30
0.0
 10
169.078992
 20
185.708345
 30
0.0
  0
SPLINE
  5
2a6
100
AcDbEntity
  8
0
100
AcDbSpline
 70
8
 71
3
 72
8
 73
4
 74
0
 40
0
 40
0
 40
0
 40
0
 40
1
 40
1
 40
1
 40
1
 10
169.078992
 20
185.708345
 30
0.0
 10
169.662698
 20
186.170648
 30
0.0
 10
170.305662
 20
186.548896
 30
0.0
 10
170.507801
 20
186.548896
 30
0.0
  0
SPLINE
  5
2a7
100
AcDbEntity
  8
0
100
AcDbSpline
 70
8
 71
3
 72
8
 73
4
 74
0
 40
0
 40
0
 40
0
 40
0
 40
1
 40
1
 40
1
 40
1
 10
170.507801
 20
186.548896
 30
0.0
 10
171.266618
 20
186.548896
 30
0.0
 10
168.940361
 20
184.591053
 30
0.0
 10
167.275513
 20
183.828511
 30
0.0
  0
SPLINE
  5
2a8
100
AcDbEntity
  8
0
100
AcDbSpline
 70
8
 71
3
 72
8
 73
4
 74
0
 40
0
 40
0
 40
0
 40
0
 40
1
 40
1
 40
1
 40
1
 10
167.275513
 20
183.828511
 30
0.0
 10
165.702736
 20
183.108138
 30
0.0
 10
165.219146
 20
183.030101
 30
0.0
 10
162.015715
 20
182.979727
 30
0.0
  0
SPLINE
  5
2a9
100
AcDbEntity
  8
0
100
AcDbSpline
 70
8
 71
3
 72
8
 73
4
 74
0
 40
0
 40
0
 40
0
 40
0
 40
1
 40
1
 40
1
 40
1
 10
162.015715
 20
182.979727
 30
0.0
 10
160.075437
 20
182.949219
 30
0.0
 10
157.344937
 20
183.085538
 30
0.0
 10
155.947937
 20
183.282665
 30
0.0
  0
LINE
  5
2aa
100
AcDbEntity
  8
0
100
AcDbLine
 10
155.947937
 20
183.282665
 30
0.0
 11
155.947937
 21
183.282665
 31
0.0
  0
SPLINE
  5
2ab
100
AcDbEntity
  8
0
100
AcDbSpline
 70
8
 71
3
 72
8
 73
4
 74
0
 40
0
 40
0
 40
0
 40
0
 40
1
 40
1
 40
1
 40
1
 10
141.636355
 20
185.183462
 30
0.0
 10
141.845247
 20
185.396862
 30
0.0
 10
143.522994
 20
185.737132
 30
0.0
 10
145.574035
 20
185.982081
 30
0.0
  0
LINE
  5
2ac
100
AcDbEntity
  8
0
100
AcDbLine
 10
145.574035
 20
185.982081
 30
0.0
 11
149.147744
 21
186.408871
 31
0.0
  0
LINE
  5
2ad
100
AcDbEntity
  8
0
100
AcDbLine
 10
149.147744
 20
186.408871
 30
0.0
 11
149.083181
 21
189.089441
 31
0.0
  0
SPLINE
  5
2ae
100
AcDbEntity
  8
0
100
AcDbSpline
 70
8
 71
3
 72
8
 73
4
 74
0
 40
0
 40
0
 40
0
 40
0
 40
1
 40
1
 40
1
 40
1
 10
149.083181
 20
189.089441
 30
0.0
 10
149.018983
 20
191.754863
 30
0.0
 10
149.316708
 20
192.997290
 30
0.0
 10
150.079922
 20
193.248936
 30
0.0
  0
SPLINE
  5
2af
100
AcDbEntity
  8
0
100
AcDbSpline
 70
8
 71
3
 72
8
 73
4
 74
0
 40
0
 40
0
 40
0
 40
0
 40
1
 40
1
 40
1
 40
1
 10
150.079922
 20
193.248936
 30
0.0
 10
150.305914
 20
193.323451
 30
0.0
 10
150.221180
 20
192.770234
 30
0.0
 10
149.828498
 20
191.607441
 30
0.0
  0
SPLINE
  5
2b0
100
AcDbEntity
  8
0
100
AcDbSpline
 70
8
 71
3
 72
8
 73
4
 74
0
 40
0
 40
0
 40
0
 40
0
 40
1
 40
1
 40
1
 40
1
 10
149.828498
 20
191.607441
 30
0.0
 10
149.332877
 20
190.139824
 30
0.0
 10
149.280036
 20
189.611704
 30
0.0
 10
149.504770
 20
188.371845
 30
0.0
  0
SPLINE
  5
2b1
100
AcDbEntity
  8
0
100
AcDbSpline
 70
8
 71
3
 72
8
 73
4
 74
0
 40
0
 40
0
 40
0
 40
0
 40
1
 40
1
 40
1
 40
1
 10
149.504770
 20
188.371845
 30
0.0
 10
149.892063
 20
186.235138
 30
0.0
 10
149.617184
 20
185.702729
 30
0.0
 10
148.125363
 20
185.700098
 30
0.0
  0
SPLINE
  5
2b2
100
AcDbEntity
  8
0
100
AcDbSpline
 70
8
 71
3
 72
8
 73
4
 74
0
 40
0
 40
0
 40
0
 40
0
 40
1
 40
1
 40
1
 40
1
 10
148.125363
 20
185.700098
 30
0.0
 10
147.050630
 20
185.698202
 30
0.0
 10
145.400979
 20
185.494248
 30
0.0
 10
142.260159
 20
184.974957
 30
0.0
  0
SPLINE
  5
2b3
100
AcDbEntity
  8
0
100
AcDbSpline
 70
8
 71
3
 72
8
 73
4
 74
0
 40
0
 40
0
 40
0
 40
0
 40
1
 40
1
 40
1
 40
1
 10
142.260159
 20
184.974957
 30
0.0
 10
141.445609
 20
184.840280
 30
0.0
 10
141.336212
 20
184.876848
 30
0.0
 10
141.636355
 20
185.183462
 30
0.0
  0
LINE
  5
2b4
100
AcDbEntity
  8
0
100
AcDbLine
 10
141.636355
 20
185.183462
 30
0.0
 11
141.636355
 21
185.183462
 31
0.0
  0
SPLINE
  5
2b5
100
AcDbEntity
  8
0
100
AcDbSpline
 70
8
 71
3
 72
8
 73
4
 74
0
 40
0
 40
0
 40
0
 40
0
 40
1
 40
1
 40
1
 40
1
 10
137.059735
 20
185.668758
 30
0.0
 10
136.976891
 20
185.802799
 30
0.0
 10
137.700348
 20
186.308451
 30
0.0
 10
138.667414
 20
186.792428
 30
0.0
  0
SPLINE
  5
2b6
100
AcDbEntity
  8
0
100
AcDbSpline
 70
8
 71
3
 72
8
 73
4
 74
0
 40
0
 40
0
 40
0
 40
0
 40
1
 40
1
 40
1
 40
1
 10
138.667414
 20
186.792428
 30
0.0
 10
139.634479
 20
187.276405
 30
0.0
 10
141.880675
 20
188.810684
 30
0.0
 10
143.658960
 20
190.201935
 30
0.0
  0
SPLINE
  5
2b7
100
AcDbEntity
  8
0
100
AcDbSpline
 70
8
 71
3
 72
8
 73
4
 74
0
 40
0
 40
0
 40
0
 40
0
 40
1
 40
1
 40
1
 40
1
 10
143.658960
 20
190.201935
 30
0.0
 10
146.959842
 20
192.784395
 30
0.0
 10
149.597937
 20
194.433654
 30
0.0
 10
149.597937
 20
193.914803
 30
0.0
  0
SPLINE
  5
2b8
100
AcDbEntity
  8
0
100
AcDbSpline
 70
8
 71
3
 72
8
 73
4
 74
0
 40
0
 40
0
 40
0
 40
0
 40
1
 40
1
 40
1
 40
1
 10
149.597937
 20
193.914803
 30
0.0
 10
149.597937
 20
193.755677
 30
0.0
 10
148.804187
 20
193.091041
 30
0.0
 10
147.834048
 20
192.437832
 30
0.0
  0
SPLINE
  5
2b9
100
AcDbEntity
  8
0
100
AcDbSpline
 70
8
 71
3
 72
8
 73
4
 74
0
 40
0
 40
0
 40
0
 40
0
 40
1
 40
1
 40
1
 40
1
 10
147.834048
 20
192.437832
 30
0.0
 10
146.863909
 20
191.784626
 30
0.0
 10
145.127046
 20
190.490747
 30
0.0
 10
143.974354
 20
189.562547
 30
0.0
  0
SPLINE
  5
2ba
100
AcDbEntity
  8
0
100
AcDbSpline
 70
8
 71
3
 72
8
 73
4
 74
0
 40
0
 40
0
 40
0
 40
0
 40
1
 40
1
 40
1
 40
1
 10
143.974354
 20
189.562547
 30
0.0
 10
140.750225
 20
186.966334
 30
0.0
 10
137.417632
 20
185.089669
 30
0.0
 10
137.059735
 20
185.668758
 30
0.0
  0
LINE
  5
2bb
100
AcDbEntity
  8
0
100
AcDbLine
 10
137.059735
 20
185.668758
 30
0.0
 11
137.059735
 21
185.668758
 31
0.0
  0
SPLINE
  5
2bc
100
AcDbEntity
  8
0
100
AcDbSpline
 70
8
 71
3
 72
8
 73
4
 74
0
 40
0
 40
0
 40
0
 40
0
 40
1
 40
1
 40
1
 40
1
 10
153.556081
 20
185.966474
 30
0.0
 10
151.363595
 20
186.112301
 30
0.0
 10
151.134580
 20
186.184372
 30
0.0
 10
150.808574
 20
186.831118
 30
0.0
  0
SPLINE
  5
2bd
100
AcDbEntity
  8
0
100
AcDbSpline
 70
8
 71
3
 72
8
 73
4
 74
0
 40
0
 40
0
 40
0
 40
0
 40
1
 40
1
 40
1
 40
1
 10
150.808574
 20
186.831118
 30
0.0
 10
150.246393
 20
187.946401
 30
0.0
 10
150.357363
 20
191.832782
 30
0.0
 10
150.991254
 20
193.228904
 30
0.0
  0
SPLINE
  5
2be
100
AcDbEntity
  8
0
100
AcDbSpline
 70
8
 71
3
 72
8
 73
4
 74
0
 40
0
 40
0
 40
0
 40
0
 40
1
 40
1
 40
1
 40
1
 10
150.991254
 20
193.228904
 30
0.0
 10
151.755300
 20
194.911691
 30
0.0
 10
152.346691
 20
195.141645
 30
0.0
 10
155.806826
 20
195.101369
 30
0.0
  0
SPLINE
  5
2bf
100
AcDbEntity
  8
0
100
AcDbSpline
 70
8
 71
3
 72
8
 73
4
 74
0
 40
0
 40
0
 40
0
 40
0
 40
1
 40
1
 40
1
 40
1
 10
155.806826
 20
195.101369
 30
0.0
 10
159.314634
 20
195.060537
 30
0.0
 10
162.093159
 20
194.527784
 30
0.0
 10
166.599633
 20
193.031961
 30
0.0
  0
SPLINE
  5
2c0
100
AcDbEntity
  8
0
100
AcDbSpline
 70
8
 71
3
 72
8
 73
4
 74
0
 40
0
 40
0
 40
0
 40
0
 40
1
 40
1
 40
1
 40
1
 10
166.599633
 20
193.031961
 30
0.0
 10
172.765161
 20
190.985449
 30
0.0
 10
179.871943
 20
186.813282
 30
0.0
 10
178.880778
 20
185.822100
 30
0.0
  0
SPLINE
  5
2c1
100
AcDbEntity
  8
0
100
AcDbSpline
 70
8
 71
3
 72
8
 73
4
 74
0
 40
0
 40
0
 40
0
 40
0
 40
1
 40
1
 40
1
 40
1
 10
178.880778
 20
185.822100
 30
0.0
 10
178.776582
 20
185.717915
 30
0.0
 10
178.131704
 20
186.124575
 30
0.0
 10
177.447682
 20
186.725784
 30
0.0
  0
SPLINE
  5
2c2
100
AcDbEntity
  8
0
100
AcDbSpline
 70
8
 71
3
 72
8
 73
4
 74
0
 40
0
 40
0
 40
0
 40
0
 40
1
 40
1
 40
1
 40
1
 10
177.447682
 20
186.725784
 30
0.0
 10
173.069377
 20
190.574042
 30
0.0
 10
162.203367
 20
194.521146
 30
0.0
 10
155.853675
 20
194.569857
 30
0.0
  0
SPLINE
  5
2c3
100
AcDbEntity
  8
0
100
AcDbSpline
 70
8
 71
3
 72
8
 73
4
 74
0
 40
0
 40
0
 40
0
 40
0
 40
1
 40
1
 40
1
 40
1
 10
155.853675
 20
194.569857
 30
0.0
 10
153.001091
 20
194.591738
 30
0.0
 10
152.922362
 20
194.575008
 30
0.0
 10
152.260340
 20
193.806190
 30
0.0
  0
SPLINE
  5
2c4
100
AcDbEntity
  8
0
100
AcDbSpline
 70
8
 71
3
 72
8
 73
4
 74
0
 40
0
 40
0
 40
0
 40
0
 40
1
 40
1
 40
1
 40
1
 10
152.260340
 20
193.806190
 30
0.0
 10
151.888071
 20
193.373870
 30
0.0
 10
151.375401
 20
192.304355
 30
0.0
 10
151.121070
 20
191.429492
 30
0.0
  0
SPLINE
  5
2c5
100
AcDbEntity
  8
0
100
AcDbSpline
 70
8
 71
3
 72
8
 73
4
 74
0
 40
0
 40
0
 40
0
 40
0
 40
1
 40
1
 40
1
 40
1
 10
151.121070
 20
191.429492
 30
0.0
 10
150.734305
 20
190.099060
 30
0.0
 10
150.712912
 20
189.596374
 30
0.0
 10
150.990320
 20
188.356783
 30
0.0
  0
SPLINE
  5
2c6
100
AcDbEntity
  8
0
100
AcDbSpline
 70
8
 71
3
 72
8
 73
4
 74
0
 40
0
 40
0
 40
0
 40
0
 40
1
 40
1
 40
1
 40
1
 10
150.990320
 20
188.356783
 30
0.0
 10
151.172737
 20
187.541658
 30
0.0
 10
151.473826
 20
186.753967
 30
0.0
 10
151.659407
 20
186.606359
 30
0.0
  0
SPLINE
  5
2c7
100
AcDbEntity
  8
0
100
AcDbSpline
 70
8
 71
3
 72
8
 73
4
 74
0
 40
0
 40
0
 40
0
 40
0
 40
1
 40
1
 40
1
 40
1
 10
151.659407
 20
186.606359
 30
0.0
 10
151.844987
 20
186.458748
 30
0.0
 10
154.528523
 20
186.247618
 30
0.0
 10
157.622821
 20
186.137179
 30
0.0
  0
SPLINE
  5
2c8
100
AcDbEntity
  8
0
100
AcDbSpline
 70
8
 71
3
 72
8
 73
4
 74
0
 40
0
 40
0
 40
0
 40
0
 40
1
 40
1
 40
1
 40
1
 10
157.622821
 20
186.137179
 30
0.0
 10
163.112532
 20
185.941243
 30
0.0
 10
163.328903
 20
185.955050
 30
0.0
 10
166.554861
 20
186.707107
 30
0.0
  0
SPLINE
  5
2c9
100
AcDbEntity
  8
0
100
AcDbSpline
 70
8
 71
3
 72
8
 73
4
 74
0
 40
0
 40
0
 40
0
 40
0
 40
1
 40
1
 40
1
 40
1
 10
166.554861
 20
186.707107
 30
0.0
 10
168.639710
 20
187.193141
 30
0.0
 10
170.053872
 20
187.392176
 30
0.0
 10
170.383310
 20
187.245934
 30
0.0
  0
SPLINE
  5
2ca
100
AcDbEntity
  8
0
100
AcDbSpline
 70
8
 71
3
 72
8
 73
4
 74
0
 40
0
 40
0
 40
0
 40
0
 40
1
 40
1
 40
1
 40
1
 10
170.383310
 20
187.245934
 30
0.0
 10
170.846646
 20
187.040253
 30
0.0
 10
170.825936
 20
187.001357
 30
0.0
 10
170.200159
 20
186.901939
 30
0.0
  0
SPLINE
  5
2cb
100
AcDbEntity
  8
0
100
AcDbSpline
 70
8
 71
3
 72
8
 73
4
 74
0
 40
0
 40
0
 40
0
 40
0
 40
1
 40
1
 40
1
 40
1
 10
170.200159
 20
186.901939
 30
0.0
 10
169.812104
 20
186.840290
 30
0.0
 10
168.520943
 20
186.545134
 30
0.0
 10
167.330916
 20
186.246038
 30
0.0
  0
SPLINE
  5
2cc
100
AcDbEntity
  8
0
100
AcDbSpline
 70
8
 71
3
 72
8
 73
4
 74
0
 40
0
 40
0
 40
0
 40
0
 40
1
 40
1
 40
1
 40
1
 10
167.330916
 20
186.246038
 30
0.0
 10
165.574531
 20
185.804600
 30
0.0
 10
164.299482
 20
185.712127
 30
0.0
 10
160.557583
 20
185.754807
 30
0.0
  0
SPLINE
  5
2cd
100
AcDbEntity
  8
0
100
AcDbSpline
 70
8
 71
3
 72
8
 73
4
 74
0
 40
0
 40
0
 40
0
 40
0
 40
1
 40
1
 40
1
 40
1
 10
160.557583
 20
185.754807
 30
0.0
 10
158.022276
 20
185.783727
 30
0.0
 10
154.871601
 20
185.878977
 30
0.0
 10
153.556081
 20
185.966474
 30
0.0
  0
LINE
  5
2ce
100
AcDbEntity
  8
0
100
AcDbLine
 10
153.556081
 20
185.966474
 30
0.0
 11
153.556081
 21
185.966474
 31
0.0
  0
SPLINE
  5
2cf
100
AcDbEntity
  8
0
100
AcDbSpline
 70
8
 71
3
 72
8
 73
4
 74
0
 40
0
 40
0
 40
0
 40
0
 40
1
 40
1
 40
1
 40
1
 10
179.357198
 20
186.708278
 30
0.0
 10
179.849619
 20
189.333196
 30
0.0
 10
178.249024
 20
193.221902
 30
0.0
 10
175.583813
 20
195.875762
 30
0.0
  0
SPLINE
  5
2d0
100
AcDbEntity
  8
0
100
AcDbSpline
 70
8
 71
3
 72
8
 73
4
 74
0
 40
0
 40
0
 40
0
 40
0
 40
1
 40
1
 40
1
 40
1
 10
175.583813
 20
195.875762
 30
0.0
 10
171.570046
 20
199.872443
 30
0.0
 10
165.354169
 20
202.911051
 30
0.0
 10
153.972381
 20
206.440429
 30
0.0
  0
SPLINE
  5
2d1
100
AcDbEntity
  8
0
100
AcDbSpline
 70
8
 71
3
 72
8
 73
4
 74
0
 40
0
 40
0
 40
0
 40
0
 40
1
 40
1
 40
1
 40
1
 10
153.972381
 20
206.440429
 30
0.0
 10
151.597168
 20
207.176958
 30
0.0
 10
149.467096
 20
208.007883
 30
0.0
 10
149.119463
 20
208.333511
 30
0.0
  0
SPLINE
  5
2d2
100
AcDbEntity
  8
0
100
AcDbSpline
 70
8
 71
3
 72
8
 73
4
 74
0
 40
0
 40
0
 40
0
 40
0
 40
1
 40
1
 40
1
 40
1
 10
149.119463
 20
208.333511
 30
0.0
 10
148.778691
 20
208.652712
 30
0.0
 10
147.869131
 20
209.120507
 30
0.0
 10
147.098218
 20
209.373054
 30
0.0
  0
SPLINE
  5
2d3
100
AcDbEntity
  8
0
100
AcDbSpline
 70
8
 71
3
 72
8
 73
4
 74
0
 40
0
 40
0
 40
0
 40
0
 40
1
 40
1
 40
1
 40
1
 10
147.098218
 20
209.373054
 30
0.0
 10
145.952340
 20
209.748437
 30
0.0
 10
145.524649
 20
210.088287
 30
0.0
 10
144.754470
 20
211.235430
 30
0.0
  0
SPLINE
  5
2d4
100
AcDbEntity
  8
0
100
AcDbSpline
 70
8
 71
3
 72
8
 73
4
 74
0
 40
0
 40
0
 40
0
 40
0
 40
1
 40
1
 40
1
 40
1
 10
144.754470
 20
211.235430
 30
0.0
 10
141.411839
 20
216.214126
 30
0.0
 10
129.505340
 20
221.913068
 30
0.0
 10
119.386296
 20
223.377685
 30
0.0
  0
SPLINE
  5
2d5
100
AcDbEntity
  8
0
100
AcDbSpline
 70
8
 71
3
 72
8
 73
4
 74
0
 40
0
 40
0
 40
0
 40
0
 40
1
 40
1
 40
1
 40
1
 10
119.386296
 20
223.377685
 30
0.0
 10
115.414448
 20
223.952566
 30
0.0
 10
114.187004
 20
224.396397
 30
0.0
 10
117.142381
 20
224.189060
 30
0.0
  0
SPLINE
  5
2d6
100
AcDbEntity
  8
0
100
AcDbSpline
 70
8
 71
3
 72
8
 73
4
 74
0
 40
0
 40
0
 40
0
 40
0
 40
1
 40
1
 40
1
 40
1
 10
117.142381
 20
224.189060
 30
0.0
 10
127.902727
 20
223.434163
 30
0.0
 10
141.392961
 20
217.412419
 30
0.0
 10
145.448282
 20
211.553926
 30
0.0
  0
SPLINE
  5
2d7
100
AcDbEntity
  8
0
100
AcDbSpline
 70
8
 71
3
 72
8
 73
4
 74
0
 40
0
 40
0
 40
0
 40
0
 40
1
 40
1
 40
1
 40
1
 10
145.448282
 20
211.553926
 30
0.0
 10
146.359603
 20
210.237393
 30
0.0
 10
146.691440
 20
209.983627
 30
0.0
 10
147.509481
 20
209.977661
 30
0.0
  0
SPLINE
  5
2d8
100
AcDbEntity
  8
0
100
AcDbSpline
 70
8
 71
3
 72
8
 73
4
 74
0
 40
0
 40
0
 40
0
 40
0
 40
1
 40
1
 40
1
 40
1
 10
147.509481
 20
209.977661
 30
0.0
 10
147.835442
 20
209.975285
 30
0.0
 10
148.657793
 20
209.570827
 30
0.0
 10
149.336924
 20
209.078865
 30
0.0
  0
SPLINE
  5
2d9
100
AcDbEntity
  8
0
100
AcDbSpline
 70
8
 71
3
 72
8
 73
4
 74
0
 40
0
 40
0
 40
0
 40
0
 40
1
 40
1
 40
1
 40
1
 10
149.336924
 20
209.078865
 30
0.0
 10
150.173233
 20
208.473047
 30
0.0
 10
152.076729
 20
207.712833
 30
0.0
 10
155.235379
 20
206.723159
 30
0.0
  0
SPLINE
  5
2da
100
AcDbEntity
  8
0
100
AcDbSpline
 70
8
 71
3
 72
8
 73
4
 74
0
 40
0
 40
0
 40
0
 40
0
 40
1
 40
1
 40
1
 40
1
 10
155.235379
 20
206.723159
 30
0.0
 10
168.938039
 20
202.429811
 30
0.0
 10
176.069018
 20
198.215861
 30
0.0
 10
178.712997
 20
192.849403
 30
0.0
  0
SPLINE
  5
2db
100
AcDbEntity
  8
0
100
AcDbSpline
 70
8
 71
3
 72
8
 73
4
 74
0
 40
0
 40
0
 40
0
 40
0
 40
1
 40
1
 40
1
 40
1
 10
178.712997
 20
192.849403
 30
0.0
 10
179.535449
 20
191.180067
 30
0.0
 10
179.666993
 20
190.606896
 30
0.0
 10
179.752394
 20
188.320216
 30
0.0
  0
SPLINE
  5
2dc
100
AcDbEntity
  8
0
100
AcDbSpline
 70
8
 71
3
 72
8
 73
4
 74
0
 40
0
 40
0
 40
0
 40
0
 40
1
 40
1
 40
1
 40
1
 10
179.752394
 20
188.320216
 30
0.0
 10
179.823796
 20
186.408756
 30
0.0
 10
179.758207
 20
185.702229
 30
0.0
 10
179.509316
 20
185.702229
 30
0.0
  0
SPLINE
  5
2dd
100
AcDbEntity
  8
0
100
AcDbSpline
 70
8
 71
3
 72
8
 73
4
 74
0
 40
0
 40
0
 40
0
 40
0
 40
1
 40
1
 40
1
 40
1
 10
179.509316
 20
185.702229
 30
0.0
 10
179.271430
 20
185.702229
 30
0.0
 10
179.225456
 20
186.006151
 30
0.0
 10
179.357198
 20
186.708278
 30
0.0
  0
LINE
  5
2de
100
AcDbEntity
  8
0
100
AcDbLine
 10
179.357198
 20
186.708278
 30
0.0
 11
179.357198
 21
186.708278
 31
0.0
  0
SPLINE
  5
2df
100
AcDbEntity
  8
0
100
AcDbSpline
 70
8
 71
3
 72
8
 73
4
 74
0
 40
0
 40
0
 40
0
 40
0
 40
1
 40
1
 40
1
 40
1
 10
119.964604
 20
190.530603
 30
0.0
 10
119.964604
 20
190.725929
 30
0.0
 10
120.238063
 20
190.774787
 30
0.0
 10
120.692678
 20
190.660685
 30
0.0
  0
SPLINE
  5
2e0
100
AcDbEntity
  8
0
100
AcDbSpline
 70
8
 71
3
 72
8
 73
4
 74
0
 40
0
 40
0
 40
0
 40
0
 40
1
 40
1
 40
1
 40
1
 10
120.692678
 20
190.660685
 30
0.0
 10
121.340790
 20
190.498017
 30
0.0
 10
121.399529
 20
190.544818
 30
0.0
 10
121.227506
 20
191.086812
 30
0.0
  0
SPLINE
  5
2e1
100
AcDbEntity
  8
0
100
AcDbSpline
 70
8
 71
3
 72
8
 73
4
 74
0
 40
0
 40
0
 40
0
 40
0
 40
1
 40
1
 40
1
 40
1
 10
121.227506
 20
191.086812
 30
0.0
 10
121.092211
 20
191.513089
 30
0.0
 10
121.141182
 20
191.660036
 30
0.0
 10
121.390805
 20
191.576829
 30
0.0
  0
SPLINE
  5
2e2
100
AcDbEntity
  8
0
100
AcDbSpline
 70
8
 71
3
 72
8
 73
4
 74
0
 40
0
 40
0
 40
0
 40
0
 40
1
 40
1
 40
1
 40
1
 10
121.390805
 20
191.576829
 30
0.0
 10
121.586904
 20
191.511463
 30
0.0
 10
121.789935
 20
191.178938
 30
0.0
 10
121.841982
 20
190.837883
 30
0.0
  0
SPLINE
  5
2e3
100
AcDbEntity
  8
0
100
AcDbSpline
 70
8
 71
3
 72
8
 73
4
 74
0
 40
0
 40
0
 40
0
 40
0
 40
1
 40
1
 40
1
 40
1
 10
121.841982
 20
190.837883
 30
0.0
 10
121.924146
 20
190.299502
 30
0.0
 10
121.806679
 20
190.217785
 30
0.0
 10
120.950612
 20
190.217785
 30
0.0
  0
SPLINE
  5
2e4
100
AcDbEntity
  8
0
100
AcDbSpline
 70
8
 71
3
 72
8
 73
4
 74
0
 40
0
 40
0
 40
0
 40
0
 40
1
 40
1
 40
1
 40
1
 10
120.950612
 20
190.217785
 30
0.0
 10
120.408308
 20
190.217785
 30
0.0
 10
119.964604
 20
190.358552
 30
0.0
 10
119.964604
 20
190.530603
 30
0.0
  0
LINE
  5
2e5
100
AcDbEntity
  8
0
100
AcDbLine
 10
119.964604
 20
190.530603
 30
0.0
 11
119.964604
 21
190.530603
 31
0.0
  0
SPLINE
  5
2e6
100
AcDbEntity
  8
0
100
AcDbSpline
 70
8
 71
3
 72
8
 73
4
 74
0
 40
0
 40
0
 40
0
 40
0
 40
1
 40
1
 40
1
 40
1
 10
120.246826
 20
191.188906
 30
0.0
 10
120.246826
 20
191.257356
 30
0.0
 10
120.373826
 20
191.391852
 30
0.0
 10
120.529048
 20
191.487785
 30
0.0
  0
SPLINE
  5
2e7
100
AcDbEntity
  8
0
100
AcDbSpline
 70
8
 71
3
 72
8
 73
4
 74
0
 40
0
 40
0
 40
0
 40
0
 40
1
 40
1
 40
1
 40
1
 10
120.529048
 20
191.487785
 30
0.0
 10
120.684270
 20
191.583718
 30
0.0
 10
120.811270
 20
191.527714
 30
0.0
 10
120.811270
 20
191.363330
 30
0.0
  0
SPLINE
  5
2e8
100
AcDbEntity
  8
0
100
AcDbSpline
 70
8
 71
3
 72
8
 73
4
 74
0
 40
0
 40
0
 40
0
 40
0
 40
1
 40
1
 40
1
 40
1
 10
120.811270
 20
191.363330
 30
0.0
 10
120.811270
 20
191.198947
 30
0.0
 10
120.684270
 20
191.064451
 30
0.0
 10
120.529048
 20
191.064451
 30
0.0
  0
SPLINE
  5
2e9
100
AcDbEntity
  8
0
100
AcDbSpline
 70
8
 71
3
 72
8
 73
4
 74
0
 40
0
 40
0
 40
0
 40
0
 40
1
 40
1
 40
1
 40
1
 10
120.529048
 20
191.064451
 30
0.0
 10
120.373826
 20
191.064451
 30
0.0
 10
120.246826
 20
191.120456
 30
0.0
 10
120.246826
 20
191.188906
 30
0.0
  0
LINE
  5
2ea
100
AcDbEntity
  8
0
100
AcDbLine
 10
120.246826
 20
191.188906
 30
0.0
 11
120.246826
 21
191.188906
 31
0.0
  0
SPLINE
  5
2eb
100
AcDbEntity
  8
0
100
AcDbSpline
 70
8
 71
3
 72
8
 73
4
 74
0
 40
0
 40
0
 40
0
 40
0
 40
1
 40
1
 40
1
 40
1
 10
118.094026
 20
191.965768
 30
0.0
 10
117.473067
 20
192.960211
 30
0.0
 10
118.040638
 20
193.700128
 30
0.0
 10
119.312538
 20
193.554289
 30
0.0
  0
SPLINE
  5
2ec
100
AcDbEntity
  8
0
100
AcDbSpline
 70
8
 71
3
 72
8
 73
4
 74
0
 40
0
 40
0
 40
0
 40
0
 40
1
 40
1
 40
1
 40
1
 10
119.312538
 20
193.554289
 30
0.0
 10
119.985488
 20
193.477127
 30
0.0
 10
120.105715
 20
193.335005
 30
0.0
 10
120.105715
 20
192.616674
 30
0.0
  0
SPLINE
  5
2ed
100
AcDbEntity
  8
0
100
AcDbSpline
 70
8
 71
3
 72
8
 73
4
 74
0
 40
0
 40
0
 40
0
 40
0
 40
1
 40
1
 40
1
 40
1
 10
120.105715
 20
192.616674
 30
0.0
 10
120.105715
 20
191.873035
 30
0.0
 10
119.997324
 20
191.759486
 30
0.0
 10
119.214979
 20
191.683545
 30
0.0
  0
SPLINE
  5
2ee
100
AcDbEntity
  8
0
100
AcDbSpline
 70
8
 71
3
 72
8
 73
4
 74
0
 40
0
 40
0
 40
0
 40
0
 40
1
 40
1
 40
1
 40
1
 10
119.214979
 20
191.683545
 30
0.0
 10
118.702483
 20
191.633798
 30
0.0
 10
118.226484
 20
191.753641
 30
0.0
 10
118.094026
 20
191.965768
 30
0.0
  0
LINE
  5
2ef
100
AcDbEntity
  8
0
100
AcDbLine
 10
118.094026
 20
191.965768
 30
0.0
 11
118.094026
 21
191.965768
 31
0.0
  0
SPLINE
  5
2f0
100
AcDbEntity
  8
0
100
AcDbSpline
 70
8
 71
3
 72
8
 73
4
 74
0
 40
0
 40
0
 40
0
 40
0
 40
1
 40
1
 40
1
 40
1
 10
119.407198
 20
192.890415
 30
0.0
 10
119.117861
 20
193.239047
 30
0.0
 10
118.958532
 20
193.259048
 30
0.0
 10
118.631674
 20
192.987779
 30
0.0
  0
SPLINE
  5
2f1
100
AcDbEntity
  8
0
100
AcDbSpline
 70
8
 71
3
 72
8
 73
4
 74
0
 40
0
 40
0
 40
0
 40
0
 40
1
 40
1
 40
1
 40
1
 10
118.631674
 20
192.987779
 30
0.0
 10
118.275100
 20
192.691849
 30
0.0
 10
118.287464
 20
192.597260
 30
0.0
 10
118.724505
 20
192.277688
 30
0.0
  0
SPLINE
  5
2f2
100
AcDbEntity
  8
0
100
AcDbSpline
 70
8
 71
3
 72
8
 73
4
 74
0
 40
0
 40
0
 40
0
 40
0
 40
1
 40
1
 40
1
 40
1
 10
118.724505
 20
192.277688
 30
0.0
 10
119.386392
 20
191.793702
 30
0.0
 10
119.919953
 20
192.272583
 30
0.0
 10
119.407198
 20
192.890415
 30
0.0
  0
LINE
  5
2f3
100
AcDbEntity
  8
0
100
AcDbLine
 10
119.407198
 20
192.890415
 30
0.0
 11
119.407198
 21
192.890415
 31
0.0
  0
SPLINE
  5
2f4
100
AcDbEntity
  8
0
100
AcDbSpline
 70
8
 71
3
 72
8
 73
4
 74
0
 40
0
 40
0
 40
0
 40
0
 40
1
 40
1
 40
1
 40
1
 10
123.633492
 20
192.032070
 30
0.0
 10
123.633492
 20
192.614729
 30
0.0
 10
124.471303
 20
193.365076
 30
0.0
 10
125.008304
 20
193.263358
 30
0.0
  0
SPLINE
  5
2f5
100
AcDbEntity
  8
0
100
AcDbSpline
 70
8
 71
3
 72
8
 73
4
 74
0
 40
0
 40
0
 40
0
 40
0
 40
1
 40
1
 40
1
 40
1
 10
125.008304
 20
193.263358
 30
0.0
 10
125.270675
 20
193.213658
 30
0.0
 10
125.506263
 20
192.844241
 30
0.0
 10
125.557238
 20
192.402594
 30
0.0
  0
SPLINE
  5
2f6
100
AcDbEntity
  8
0
100
AcDbSpline
 70
8
 71
3
 72
8
 73
4
 74
0
 40
0
 40
0
 40
0
 40
0
 40
1
 40
1
 40
1
 40
1
 10
125.557238
 20
192.402594
 30
0.0
 10
125.639824
 20
191.687079
 30
0.0
 10
125.570849
 20
191.628896
 30
0.0
 10
124.640015
 20
191.628896
 30
0.0
  0
SPLINE
  5
2f7
100
AcDbEntity
  8
0
100
AcDbSpline
 70
8
 71
3
 72
8
 73
4
 74
0
 40
0
 40
0
 40
0
 40
0
 40
1
 40
1
 40
1
 40
1
 10
124.640015
 20
191.628896
 30
0.0
 10
123.955844
 20
191.628896
 30
0.0
 10
123.633492
 20
191.758018
 30
0.0
 10
123.633492
 20
192.032070
 30
0.0
  0
LINE
  5
2f8
100
AcDbEntity
  8
0
100
AcDbLine
 10
123.633492
 20
192.032070
 30
0.0
 11
123.633492
 21
192.032070
 31
0.0
  0
SPLINE
  5
2f9
100
AcDbEntity
  8
0
100
AcDbSpline
 70
8
 71
3
 72
8
 73
4
 74
0
 40
0
 40
0
 40
0
 40
0
 40
1
 40
1
 40
1
 40
1
 10
125.185715
 20
192.475563
 30
0.0
 10
124.959251
 20
192.841989
 30
0.0
 10
124.197937
 20
192.841989
 30
0.0
 10
124.197937
 20
192.475563
 30
0.0
  0
SPLINE
  5
2fa
100
AcDbEntity
  8
0
100
AcDbSpline
 70
8
 71
3
 72
8
 73
4
 74
0
 40
0
 40
0
 40
0
 40
0
 40
1
 40
1
 40
1
 40
1
 10
124.197937
 20
192.475563
 30
0.0
 10
124.197937
 20
192.320340
 30
0.0
 10
124.459433
 20
192.193340
 30
0.0
 10
124.779038
 20
192.193340
 30
0.0
  0
SPLINE
  5
2fb
100
AcDbEntity
  8
0
100
AcDbSpline
 70
8
 71
3
 72
8
 73
4
 74
0
 40
0
 40
0
 40
0
 40
0
 40
1
 40
1
 40
1
 40
1
 10
124.779038
 20
192.193340
 30
0.0
 10
125.098643
 20
192.193340
 30
0.0
 10
125.281648
 20
192.320340
 30
0.0
 10
125.185715
 20
192.475563
 30
0.0
  0
LINE
  5
2fc
100
AcDbEntity
  8
0
100
AcDbLine
 10
125.185715
 20
192.475563
 30
0.0
 11
125.185715
 21
192.475563
 31
0.0
  0
SPLINE
  5
2fd
100
AcDbEntity
  8
0
100
AcDbSpline
 70
8
 71
3
 72
8
 73
4
 74
0
 40
0
 40
0
 40
0
 40
0
 40
1
 40
1
 40
1
 40
1
 10
121.071900
 20
192.969451
 30
0.0
 10
121.060024
 20
193.085868
 30
0.0
 10
121.007835
 20
193.402863
 30
0.0
 10
120.955926
 20
193.673887
 30
0.0
  0
SPLINE
  5
2fe
100
AcDbEntity
  8
0
100
AcDbSpline
 70
8
 71
3
 72
8
 73
4
 74
0
 40
0
 40
0
 40
0
 40
0
 40
1
 40
1
 40
1
 40
1
 10
120.955926
 20
193.673887
 30
0.0
 10
120.834156
 20
194.309651
 30
0.0
 10
121.179446
 20
194.507563
 30
0.0
 10
122.410429
 20
194.507563
 30
0.0
  0
SPLINE
  5
2ff
100
AcDbEntity
  8
0
100
AcDbSpline
 70
8
 71
3
 72
8
 73
4
 74
0
 40
0
 40
0
 40
0
 40
0
 40
1
 40
1
 40
1
 40
1
 10
122.410429
 20
194.507563
 30
0.0
 10
123.702197
 20
194.507563
 30
0.0
 10
124.023938
 20
194.166776
 30
0.0
 10
123.473763
 20
193.381290
 30
0.0
  0
SPLINE
  5
300
100
AcDbEntity
  8
0
100
AcDbSpline
 70
8
 71
3
 72
8
 73
4
 74
0
 40
0
 40
0
 40
0
 40
0
 40
1
 40
1
 40
1
 40
1
 10
123.473763
 20
193.381290
 30
0.0
 10
123.167033
 20
192.943371
 30
0.0
 10
122.747792
 20
192.757785
 30
0.0
 10
122.065268
 20
192.757785
 30
0.0
  0
SPLINE
  5
301
100
AcDbEntity
  8
0
100
AcDbSpline
 70
8
 71
3
 72
8
 73
4
 74
0
 40
0
 40
0
 40
0
 40
0
 40
1
 40
1
 40
1
 40
1
 10
122.065268
 20
192.757785
 30
0.0
 10
121.530790
 20
192.757785
 30
0.0
 10
121.083776
 20
192.853035
 30
0.0
 10
121.071900
 20
192.969451
 30
0.0
  0
LINE
  5
302
100
AcDbEntity
  8
0
100
AcDbLine
 10
121.071900
 20
192.969451
 30
0.0
 11
121.071900
 21
192.969451
 31
0.0
  0
SPLINE
  5
303
100
AcDbEntity
  8
0
100
AcDbSpline
 70
8
 71
3
 72
8
 73
4
 74
0
 40
0
 40
0
 40
0
 40
0
 40
1
 40
1
 40
1
 40
1
 10
122.967369
 20
193.937965
 30
0.0
 10
122.706584
 20
194.083910
 30
0.0
 10
122.218035
 20
194.115979
 30
0.0
 10
121.881705
 20
194.009231
 30
0.0
  0
SPLINE
  5
304
100
AcDbEntity
  8
0
100
AcDbSpline
 70
8
 71
3
 72
8
 73
4
 74
0
 40
0
 40
0
 40
0
 40
0
 40
1
 40
1
 40
1
 40
1
 10
121.881705
 20
194.009231
 30
0.0
 10
121.298761
 20
193.824212
 30
0.0
 10
121.294257
 20
193.797554
 30
0.0
 10
121.785276
 20
193.438513
 30
0.0
  0
SPLINE
  5
305
100
AcDbEntity
  8
0
100
AcDbSpline
 70
8
 71
3
 72
8
 73
4
 74
0
 40
0
 40
0
 40
0
 40
0
 40
1
 40
1
 40
1
 40
1
 10
121.785276
 20
193.438513
 30
0.0
 10
122.170805
 20
193.156604
 30
0.0
 10
122.443864
 20
193.138680
 30
0.0
 10
122.870939
 20
193.367246
 30
0.0
  0
SPLINE
  5
306
100
AcDbEntity
  8
0
100
AcDbSpline
 70
8
 71
3
 72
8
 73
4
 74
0
 40
0
 40
0
 40
0
 40
0
 40
1
 40
1
 40
1
 40
1
 10
122.870939
 20
193.367246
 30
0.0
 10
123.389921
 20
193.644995
 30
0.0
 10
123.398641
 20
193.696614
 30
0.0
 10
122.967369
 20
193.937965
 30
0.0
  0
LINE
  5
307
100
AcDbEntity
  8
0
100
AcDbLine
 10
122.967369
 20
193.937965
 30
0.0
 11
122.967369
 21
193.937965
 31
0.0
  0
SPLINE
  5
308
100
AcDbEntity
  8
0
100
AcDbSpline
 70
8
 71
3
 72
8
 73
4
 74
0
 40
0
 40
0
 40
0
 40
0
 40
1
 40
1
 40
1
 40
1
 10
126.071655
 20
194.082587
 30
0.0
 10
125.693836
 20
194.460403
 30
0.0
 10
125.924587
 20
194.622419
 30
0.0
 10
126.879048
 20
194.649472
 30
0.0
  0
SPLINE
  5
309
100
AcDbEntity
  8
0
100
AcDbSpline
 70
8
 71
3
 72
8
 73
4
 74
0
 40
0
 40
0
 40
0
 40
0
 40
1
 40
1
 40
1
 40
1
 10
126.879048
 20
194.649472
 30
0.0
 10
127.422326
 20
194.664873
 30
0.0
 10
127.866826
 20
194.563045
 30
0.0
 10
127.866826
 20
194.423184
 30
0.0
  0
SPLINE
  5
30a
100
AcDbEntity
  8
0
100
AcDbSpline
 70
8
 71
3
 72
8
 73
4
 74
0
 40
0
 40
0
 40
0
 40
0
 40
1
 40
1
 40
1
 40
1
 10
127.866826
 20
194.423184
 30
0.0
 10
127.866826
 20
194.283326
 30
0.0
 10
127.771576
 20
194.159458
 30
0.0
 10
127.655159
 20
194.147924
 30
0.0
  0
SPLINE
  5
30b
100
AcDbEntity
  8
0
100
AcDbSpline
 70
8
 71
3
 72
8
 73
4
 74
0
 40
0
 40
0
 40
0
 40
0
 40
1
 40
1
 40
1
 40
1
 10
127.655159
 20
194.147924
 30
0.0
 10
127.538742
 20
194.136390
 30
0.0
 10
127.175415
 20
194.076383
 30
0.0
 10
126.847767
 20
194.014577
 30
0.0
  0
SPLINE
  5
30c
100
AcDbEntity
  8
0
100
AcDbSpline
 70
8
 71
3
 72
8
 73
4
 74
0
 40
0
 40
0
 40
0
 40
0
 40
1
 40
1
 40
1
 40
1
 10
126.847767
 20
194.014577
 30
0.0
 10
126.520115
 20
193.952770
 30
0.0
 10
126.170865
 20
193.983374
 30
0.0
 10
126.071655
 20
194.082587
 30
0.0
  0
LINE
  5
30d
100
AcDbEntity
  8
0
100
AcDbLine
 10
126.071655
 20
194.082587
 30
0.0
 11
126.071655
 21
194.082587
 31
0.0
  0
SPLINE
  5
30e
100
AcDbEntity
  8
0
100
AcDbSpline
 70
8
 71
3
 72
8
 73
4
 74
0
 40
0
 40
0
 40
0
 40
0
 40
1
 40
1
 40
1
 40
1
 10
119.742895
 20
194.964198
 30
0.0
 10
119.099206
 20
195.386795
 30
0.0
 10
119.047463
 20
196.651320
 30
0.0
 10
119.660439
 20
196.979375
 30
0.0
  0
SPLINE
  5
30f
100
AcDbEntity
  8
0
100
AcDbSpline
 70
8
 71
3
 72
8
 73
4
 74
0
 40
0
 40
0
 40
0
 40
0
 40
1
 40
1
 40
1
 40
1
 10
119.660439
 20
196.979375
 30
0.0
 10
120.529985
 20
197.444742
 30
0.0
 10
121.886924
 20
197.337032
 30
0.0
 10
122.179103
 20
196.779451
 30
0.0
  0
SPLINE
  5
310
100
AcDbEntity
  8
0
100
AcDbSpline
 70
8
 71
3
 72
8
 73
4
 74
0
 40
0
 40
0
 40
0
 40
0
 40
1
 40
1
 40
1
 40
1
 10
122.179103
 20
196.779451
 30
0.0
 10
122.491401
 20
196.183474
 30
0.0
 10
122.106992
 20
195.017146
 30
0.0
 10
121.596475
 20
195.011710
 30
0.0
  0
SPLINE
  5
311
100
AcDbEntity
  8
0
100
AcDbSpline
 70
8
 71
3
 72
8
 73
4
 74
0
 40
0
 40
0
 40
0
 40
0
 40
1
 40
1
 40
1
 40
1
 10
121.596475
 20
195.011710
 30
0.0
 10
121.397446
 20
195.009591
 30
0.0
 10
120.980604
 20
194.944437
 30
0.0
 10
120.670159
 20
194.866927
 30
0.0
  0
SPLINE
  5
312
100
AcDbEntity
  8
0
100
AcDbSpline
 70
8
 71
3
 72
8
 73
4
 74
0
 40
0
 40
0
 40
0
 40
0
 40
1
 40
1
 40
1
 40
1
 10
120.670159
 20
194.866927
 30
0.0
 10
120.359715
 20
194.789418
 30
0.0
 10
119.942446
 20
194.833191
 30
0.0
 10
119.742895
 20
194.964198
 30
0.0
  0
LINE
  5
313
100
AcDbEntity
  8
0
100
AcDbLine
 10
119.742895
 20
194.964198
 30
0.0
 11
119.742895
 21
194.964198
 31
0.0
  0
SPLINE
  5
314
100
AcDbEntity
  8
0
100
AcDbSpline
 70
8
 71
3
 72
8
 73
4
 74
0
 40
0
 40
0
 40
0
 40
0
 40
1
 40
1
 40
1
 40
1
 10
121.594778
 20
195.629737
 30
0.0
 10
121.837185
 20
195.872144
 30
0.0
 10
121.843089
 20
196.062469
 30
0.0
 10
121.616665
 20
196.335293
 30
0.0
  0
SPLINE
  5
315
100
AcDbEntity
  8
0
100
AcDbSpline
 70
8
 71
3
 72
8
 73
4
 74
0
 40
0
 40
0
 40
0
 40
0
 40
1
 40
1
 40
1
 40
1
 10
121.616665
 20
196.335293
 30
0.0
 10
121.210237
 20
196.825008
 30
0.0
 10
120.401224
 20
196.811659
 30
0.0
 10
119.983510
 20
196.308344
 30
0.0
  0
SPLINE
  5
316
100
AcDbEntity
  8
0
100
AcDbSpline
 70
8
 71
3
 72
8
 73
4
 74
0
 40
0
 40
0
 40
0
 40
0
 40
1
 40
1
 40
1
 40
1
 10
119.983510
 20
196.308344
 30
0.0
 10
119.720919
 20
195.991941
 30
0.0
 10
119.758127
 20
195.845519
 30
0.0
 10
120.160621
 20
195.611370
 30
0.0
  0
SPLINE
  5
317
100
AcDbEntity
  8
0
100
AcDbSpline
 70
8
 71
3
 72
8
 73
4
 74
0
 40
0
 40
0
 40
0
 40
0
 40
1
 40
1
 40
1
 40
1
 10
120.160621
 20
195.611370
 30
0.0
 10
120.830763
 20
195.221520
 30
0.0
 10
121.191175
 20
195.226134
 30
0.0
 10
121.594778
 20
195.629737
 30
0.0
  0
LINE
  5
318
100
AcDbEntity
  8
0
100
AcDbLine
 10
121.594778
 20
195.629737
 30
0.0
 11
121.594778
 21
195.629737
 31
0.0
  0
SPLINE
  5
319
100
AcDbEntity
  8
0
100
AcDbSpline
 70
8
 71
3
 72
8
 73
4
 74
0
 40
0
 40
0
 40
0
 40
0
 40
1
 40
1
 40
1
 40
1
 10
123.397134
 20
194.981244
 30
0.0
 10
123.189526
 20
195.112839
 30
0.0
 10
123.062526
 20
195.515096
 30
0.0
 10
123.114912
 20
195.875147
 30
0.0
  0
SPLINE
  5
31a
100
AcDbEntity
  8
0
100
AcDbSpline
 70
8
 71
3
 72
8
 73
4
 74
0
 40
0
 40
0
 40
0
 40
0
 40
1
 40
1
 40
1
 40
1
 10
123.114912
 20
195.875147
 30
0.0
 10
123.251214
 20
196.811961
 30
0.0
 10
124.550353
 20
197.117317
 30
0.0
 10
125.396538
 20
196.411431
 30
0.0
  0
SPLINE
  5
31b
100
AcDbEntity
  8
0
100
AcDbSpline
 70
8
 71
3
 72
8
 73
4
 74
0
 40
0
 40
0
 40
0
 40
0
 40
1
 40
1
 40
1
 40
1
 10
125.396538
 20
196.411431
 30
0.0
 10
126.075482
 20
195.845053
 30
0.0
 10
125.661016
 20
195.663517
 30
0.0
 10
124.773461
 20
196.138522
 30
0.0
  0
SPLINE
  5
31c
100
AcDbEntity
  8
0
100
AcDbSpline
 70
8
 71
3
 72
8
 73
4
 74
0
 40
0
 40
0
 40
0
 40
0
 40
1
 40
1
 40
1
 40
1
 10
124.773461
 20
196.138522
 30
0.0
 10
124.099430
 20
196.499253
 30
0.0
 10
123.279445
 20
195.691022
 30
0.0
 10
123.918655
 20
195.295967
 30
0.0
  0
SPLINE
  5
31d
100
AcDbEntity
  8
0
100
AcDbSpline
 70
8
 71
3
 72
8
 73
4
 74
0
 40
0
 40
0
 40
0
 40
0
 40
1
 40
1
 40
1
 40
1
 10
123.918655
 20
195.295967
 30
0.0
 10
124.138619
 20
195.160024
 30
0.0
 10
124.522492
 20
195.169399
 30
0.0
 10
124.799177
 20
195.317478
 30
0.0
  0
SPLINE
  5
31e
100
AcDbEntity
  8
0
100
AcDbSpline
 70
8
 71
3
 72
8
 73
4
 74
0
 40
0
 40
0
 40
0
 40
0
 40
1
 40
1
 40
1
 40
1
 10
124.799177
 20
195.317478
 30
0.0
 10
125.517823
 20
195.702085
 30
0.0
 10
125.726656
 20
195.638441
 30
0.0
 10
125.326826
 20
195.156674
 30
0.0
  0
SPLINE
  5
31f
100
AcDbEntity
  8
0
100
AcDbSpline
 70
8
 71
3
 72
8
 73
4
 74
0
 40
0
 40
0
 40
0
 40
0
 40
1
 40
1
 40
1
 40
1
 10
125.326826
 20
195.156674
 30
0.0
 10
124.941556
 20
194.692452
 30
0.0
 10
123.989321
 20
194.605883
 30
0.0
 10
123.397134
 20
194.981244
 30
0.0
  0
LINE
  5
320
100
AcDbEntity
  8
0
100
AcDbLine
 10
123.397134
 20
194.981244
 30
0.0
 11
123.397134
 21
194.981244
 31
0.0
  0
SPLINE
  5
321
100
AcDbEntity
  8
0
100
AcDbSpline
 70
8
 71
3
 72
8
 73
4
 74
0
 40
0
 40
0
 40
0
 40
0
 40
1
 40
1
 40
1
 40
1
 10
126.173492
 20
195.297785
 30
0.0
 10
126.173492
 20
195.665247
 30
0.0
 10
127.498610
 20
195.665247
 30
0.0
 10
127.725715
 20
195.297785
 30
0.0
  0
SPLINE
  5
322
100
AcDbEntity
  8
0
100
AcDbSpline
 70
8
 71
3
 72
8
 73
4
 74
0
 40
0
 40
0
 40
0
 40
0
 40
1
 40
1
 40
1
 40
1
 10
127.725715
 20
195.297785
 30
0.0
 10
127.827478
 20
195.133131
 30
0.0
 10
127.540498
 20
195.015563
 30
0.0
 10
127.036816
 20
195.015563
 30
0.0
  0
SPLINE
  5
323
100
AcDbEntity
  8
0
100
AcDbSpline
 70
8
 71
3
 72
8
 73
4
 74
0
 40
0
 40
0
 40
0
 40
0
 40
1
 40
1
 40
1
 40
1
 10
127.036816
 20
195.015563
 30
0.0
 10
126.561988
 20
195.015563
 30
0.0
 10
126.173492
 20
195.142563
 30
0.0
 10
126.173492
 20
195.297785
 30
0.0
  0
LINE
  5
324
100
AcDbEntity
  8
0
100
AcDbLine
 10
126.173492
 20
195.297785
 30
0.0
 11
126.173492
 21
195.297785
 31
0.0
  0
SPLINE
  5
325
100
AcDbEntity
  8
0
100
AcDbSpline
 70
8
 71
3
 72
8
 73
4
 74
0
 40
0
 40
0
 40
0
 40
0
 40
1
 40
1
 40
1
 40
1
 10
126.596826
 20
197.998482
 30
0.0
 10
125.184741
 20
198.731393
 30
0.0
 10
124.189724
 20
199.878234
 30
0.0
 10
123.872337
 20
201.138687
 30
0.0
  0
SPLINE
  5
326
100
AcDbEntity
  8
0
100
AcDbSpline
 70
8
 71
3
 72
8
 73
4
 74
0
 40
0
 40
0
 40
0
 40
0
 40
1
 40
1
 40
1
 40
1
 10
123.872337
 20
201.138687
 30
0.0
 10
123.703427
 20
201.809492
 30
0.0
 10
123.367806
 20
202.396565
 30
0.0
 10
123.108395
 20
202.474987
 30
0.0
  0
SPLINE
  5
327
100
AcDbEntity
  8
0
100
AcDbSpline
 70
8
 71
3
 72
8
 73
4
 74
0
 40
0
 40
0
 40
0
 40
0
 40
1
 40
1
 40
1
 40
1
 10
123.108395
 20
202.474987
 30
0.0
 10
120.004363
 20
203.413367
 30
0.0
 10
115.960974
 20
203.473144
 30
0.0
 10
112.909048
 20
202.625772
 30
0.0
  0
SPLINE
  5
328
100
AcDbEntity
  8
0
100
AcDbSpline
 70
8
 71
3
 72
8
 73
4
 74
0
 40
0
 40
0
 40
0
 40
0
 40
1
 40
1
 40
1
 40
1
 10
112.909048
 20
202.625772
 30
0.0
 10
111.744881
 20
202.302540
 30
0.0
 10
109.474308
 20
201.410512
 30
0.0
 10
107.863330
 20
200.643486
 30
0.0
  0
SPLINE
  5
329
100
AcDbEntity
  8
0
100
AcDbSpline
 70
8
 71
3
 72
8
 73
4
 74
0
 40
0
 40
0
 40
0
 40
0
 40
1
 40
1
 40
1
 40
1
 10
107.863330
 20
200.643486
 30
0.0
 10
106.252351
 20
199.876462
 30
0.0
 10
104.646690
 20
199.248896
 30
0.0
 10
104.295191
 20
199.248896
 30
0.0
  0
SPLINE
  5
32a
100
AcDbEntity
  8
0
100
AcDbSpline
 70
8
 71
3
 72
8
 73
4
 74
0
 40
0
 40
0
 40
0
 40
0
 40
1
 40
1
 40
1
 40
1
 10
104.295191
 20
199.248896
 30
0.0
 10
103.350102
 20
199.248896
 30
0.0
 10
103.141749
 20
200.118812
 30
0.0
 10
103.931223
 20
200.768538
 30
0.0
  0
SPLINE
  5
32b
100
AcDbEntity
  8
0
100
AcDbSpline
 70
8
 71
3
 72
8
 73
4
 74
0
 40
0
 40
0
 40
0
 40
0
 40
1
 40
1
 40
1
 40
1
 10
103.931223
 20
200.768538
 30
0.0
 10
104.955888
 20
201.611818
 30
0.0
 10
108.981649
 20
203.418393
 30
0.0
 10
110.227937
 20
203.594209
 30
0.0
  0
SPLINE
  5
32c
100
AcDbEntity
  8
0
100
AcDbSpline
 70
8
 71
3
 72
8
 73
4
 74
0
 40
0
 40
0
 40
0
 40
0
 40
1
 40
1
 40
1
 40
1
 10
110.227937
 20
203.594209
 30
0.0
 10
111.227873
 20
203.735270
 30
0.0
 10
111.276232
 20
203.717447
 30
0.0
 10
110.651270
 20
203.438183
 30
0.0
  0
SPLINE
  5
32d
100
AcDbEntity
  8
0
100
AcDbSpline
 70
8
 71
3
 72
8
 73
4
 74
0
 40
0
 40
0
 40
0
 40
0
 40
1
 40
1
 40
1
 40
1
 10
110.651270
 20
203.438183
 30
0.0
 10
108.602591
 20
202.522724
 30
0.0
 10
104.796093
 20
200.595734
 30
0.0
 10
104.321872
 20
200.234004
 30
0.0
  0
SPLINE
  5
32e
100
AcDbEntity
  8
0
100
AcDbSpline
 70
8
 71
3
 72
8
 73
4
 74
0
 40
0
 40
0
 40
0
 40
0
 40
1
 40
1
 40
1
 40
1
 10
104.321872
 20
200.234004
 30
0.0
 10
103.447873
 20
199.567333
 30
0.0
 10
104.041725
 20
199.412111
 30
0.0
 10
105.062536
 20
200.040408
 30
0.0
  0
SPLINE
  5
32f
100
AcDbEntity
  8
0
100
AcDbSpline
 70
8
 71
3
 72
8
 73
4
 74
0
 40
0
 40
0
 40
0
 40
0
 40
1
 40
1
 40
1
 40
1
 10
105.062536
 20
200.040408
 30
0.0
 10
106.655387
 20
201.020789
 30
0.0
 10
110.699844
 20
202.699898
 30
0.0
 10
112.767937
 20
203.239408
 30
0.0
  0
SPLINE
  5
330
100
AcDbEntity
  8
0
100
AcDbSpline
 70
8
 71
3
 72
8
 73
4
 74
0
 40
0
 40
0
 40
0
 40
0
 40
1
 40
1
 40
1
 40
1
 10
112.767937
 20
203.239408
 30
0.0
 10
116.148711
 20
204.121364
 30
0.0
 10
123.362489
 20
203.731333
 30
0.0
 10
123.936311
 20
202.635563
 30
0.0
  0
SPLINE
  5
331
100
AcDbEntity
  8
0
100
AcDbSpline
 70
8
 71
3
 72
8
 73
4
 74
0
 40
0
 40
0
 40
0
 40
0
 40
1
 40
1
 40
1
 40
1
 10
123.936311
 20
202.635563
 30
0.0
 10
124.058237
 20
202.402729
 30
0.0
 10
124.429994
 20
201.613769
 30
0.0
 10
124.762435
 20
200.882316
 30
0.0
  0
SPLINE
  5
332
100
AcDbEntity
  8
0
100
AcDbSpline
 70
8
 71
3
 72
8
 73
4
 74
0
 40
0
 40
0
 40
0
 40
0
 40
1
 40
1
 40
1
 40
1
 10
124.762435
 20
200.882316
 30
0.0
 10
125.715169
 20
198.786068
 30
0.0
 10
127.988097
 20
197.642041
 30
0.0
 10
130.123342
 20
198.184023
 30
0.0
  0
SPLINE
  5
333
100
AcDbEntity
  8
0
100
AcDbSpline
 70
8
 71
3
 72
8
 73
4
 74
0
 40
0
 40
0
 40
0
 40
0
 40
1
 40
1
 40
1
 40
1
 10
130.123342
 20
198.184023
 30
0.0
 10
130.976994
 20
198.400705
 30
0.0
 10
131.605466
 20
198.849487
 30
0.0
 10
132.470742
 20
199.860268
 30
0.0
  0
SPLINE
  5
334
100
AcDbEntity
  8
0
100
AcDbSpline
 70
8
 71
3
 72
8
 73
4
 74
0
 40
0
 40
0
 40
0
 40
0
 40
1
 40
1
 40
1
 40
1
 10
132.470742
 20
199.860268
 30
0.0
 10
133.120644
 20
200.619457
 30
0.0
 10
134.313563
 20
201.615919
 30
0.0
 10
135.121673
 20
202.074626
 30
0.0
  0
SPLINE
  5
335
100
AcDbEntity
  8
0
100
AcDbSpline
 70
8
 71
3
 72
8
 73
4
 74
0
 40
0
 40
0
 40
0
 40
0
 40
1
 40
1
 40
1
 40
1
 10
135.121673
 20
202.074626
 30
0.0
 10
136.580688
 20
202.902810
 30
0.0
 10
137.415089
 20
203.868168
 30
0.0
 10
136.930678
 20
204.167549
 30
0.0
  0
SPLINE
  5
336
100
AcDbEntity
  8
0
100
AcDbSpline
 70
8
 71
3
 72
8
 73
4
 74
0
 40
0
 40
0
 40
0
 40
0
 40
1
 40
1
 40
1
 40
1
 10
136.930678
 20
204.167549
 30
0.0
 10
136.792623
 20
204.252871
 30
0.0
 10
136.528121
 20
204.140075
 30
0.0
 10
136.342893
 20
203.916891
 30
0.0
  0
SPLINE
  5
337
100
AcDbEntity
  8
0
100
AcDbSpline
 70
8
 71
3
 72
8
 73
4
 74
0
 40
0
 40
0
 40
0
 40
0
 40
1
 40
1
 40
1
 40
1
 10
136.342893
 20
203.916891
 30
0.0
 10
135.172238
 20
202.506336
 30
0.0
 10
131.167482
 20
202.485643
 30
0.0
 10
126.417976
 20
203.865608
 30
0.0
  0
SPLINE
  5
338
100
AcDbEntity
  8
0
100
AcDbSpline
 70
8
 71
3
 72
8
 73
4
 74
0
 40
0
 40
0
 40
0
 40
0
 40
1
 40
1
 40
1
 40
1
 10
126.417976
 20
203.865608
 30
0.0
 10
119.590611
 20
205.849295
 30
0.0
 10
115.363411
 20
206.362727
 30
0.0
 10
110.792381
 20
205.763488
 30
0.0
  0
SPLINE
  5
339
100
AcDbEntity
  8
0
100
AcDbSpline
 70
8
 71
3
 72
8
 73
4
 74
0
 40
0
 40
0
 40
0
 40
0
 40
1
 40
1
 40
1
 40
1
 10
110.792381
 20
205.763488
 30
0.0
 10
105.726732
 20
205.099405
 30
0.0
 10
97.584373
 20
202.597934
 30
0.0
 10
98.613589
 20
202.021955
 30
0.0
  0
SPLINE
  5
33a
100
AcDbEntity
  8
0
100
AcDbSpline
 70
8
 71
3
 72
8
 73
4
 74
0
 40
0
 40
0
 40
0
 40
0
 40
1
 40
1
 40
1
 40
1
 10
98.613589
 20
202.021955
 30
0.0
 10
98.932396
 20
201.843540
 30
0.0
 10
100.297928
 20
202.113914
 30
0.0
 10
103.014337
 20
202.893294
 30
0.0
  0
SPLINE
  5
33b
100
AcDbEntity
  8
0
100
AcDbSpline
 70
8
 71
3
 72
8
 73
4
 74
0
 40
0
 40
0
 40
0
 40
0
 40
1
 40
1
 40
1
 40
1
 10
103.014337
 20
202.893294
 30
0.0
 10
106.544274
 20
203.906087
 30
0.0
 10
110.177684
 20
204.639098
 30
0.0
 10
109.804604
 20
204.263172
 30
0.0
  0
SPLINE
  5
33c
100
AcDbEntity
  8
0
100
AcDbSpline
 70
8
 71
3
 72
8
 73
4
 74
0
 40
0
 40
0
 40
0
 40
0
 40
1
 40
1
 40
1
 40
1
 10
109.804604
 20
204.263172
 30
0.0
 10
109.539552
 20
203.996099
 30
0.0
 10
100.635477
 20
201.531701
 30
0.0
 10
99.439408
 20
201.394375
 30
0.0
  0
SPLINE
  5
33d
100
AcDbEntity
  8
0
100
AcDbSpline
 70
8
 71
3
 72
8
 73
4
 74
0
 40
0
 40
0
 40
0
 40
0
 40
1
 40
1
 40
1
 40
1
 10
99.439408
 20
201.394375
 30
0.0
 10
98.275143
 20
201.260703
 30
0.0
 10
97.897513
 20
201.459390
 30
0.0
 10
97.774323
 20
202.270454
 30
0.0
  0
SPLINE
  5
33e
100
AcDbEntity
  8
0
100
AcDbSpline
 70
8
 71
3
 72
8
 73
4
 74
0
 40
0
 40
0
 40
0
 40
0
 40
1
 40
1
 40
1
 40
1
 10
97.774323
 20
202.270454
 30
0.0
 10
97.694008
 20
202.799223
 30
0.0
 10
98.181160
 20
203.073182
 30
0.0
 10
100.914604
 20
204.036454
 30
0.0
  0
SPLINE
  5
33f
100
AcDbEntity
  8
0
100
AcDbSpline
 70
8
 71
3
 72
8
 73
4
 74
0
 40
0
 40
0
 40
0
 40
0
 40
1
 40
1
 40
1
 40
1
 10
100.914604
 20
204.036454
 30
0.0
 10
105.652006
 20
205.705926
 30
0.0
 10
107.577845
 20
206.054992
 30
0.0
 10
112.983371
 20
206.223967
 30
0.0
  0
SPLINE
  5
340
100
AcDbEntity
  8
0
100
AcDbSpline
 70
8
 71
3
 72
8
 73
4
 74
0
 40
0
 40
0
 40
0
 40
0
 40
1
 40
1
 40
1
 40
1
 10
112.983371
 20
206.223967
 30
0.0
 10
118.847571
 20
206.407279
 30
0.0
 10
120.621092
 20
206.182173
 30
0.0
 10
126.314604
 20
204.531898
 30
0.0
  0
SPLINE
  5
341
100
AcDbEntity
  8
0
100
AcDbSpline
 70
8
 71
3
 72
8
 73
4
 74
0
 40
0
 40
0
 40
0
 40
0
 40
1
 40
1
 40
1
 40
1
 10
126.314604
 20
204.531898
 30
0.0
 10
131.063642
 20
203.155382
 30
0.0
 10
133.280421
 20
203.018135
 30
0.0
 10
135.122804
 20
203.986557
 30
0.0
  0
SPLINE
  5
342
100
AcDbEntity
  8
0
100
AcDbSpline
 70
8
 71
3
 72
8
 73
4
 74
0
 40
0
 40
0
 40
0
 40
0
 40
1
 40
1
 40
1
 40
1
 10
135.122804
 20
203.986557
 30
0.0
 10
136.638371
 20
204.783195
 30
0.0
 10
137.351169
 20
204.784657
 30
0.0
 10
137.558568
 20
203.991553
 30
0.0
  0
SPLINE
  5
343
100
AcDbEntity
  8
0
100
AcDbSpline
 70
8
 71
3
 72
8
 73
4
 74
0
 40
0
 40
0
 40
0
 40
0
 40
1
 40
1
 40
1
 40
1
 10
137.558568
 20
203.991553
 30
0.0
 10
137.681744
 20
203.520532
 30
0.0
 10
137.449958
 20
203.114544
 30
0.0
 10
136.591825
 20
202.298219
 30
0.0
  0
SPLINE
  5
344
100
AcDbEntity
  8
0
100
AcDbSpline
 70
8
 71
3
 72
8
 73
4
 74
0
 40
0
 40
0
 40
0
 40
0
 40
1
 40
1
 40
1
 40
1
 10
136.591825
 20
202.298219
 30
0.0
 10
135.971003
 20
201.707647
 30
0.0
 10
135.289733
 20
201.224451
 30
0.0
 10
135.077889
 20
201.224451
 30
0.0
  0
SPLINE
  5
345
100
AcDbEntity
  8
0
100
AcDbSpline
 70
8
 71
3
 72
8
 73
4
 74
0
 40
0
 40
0
 40
0
 40
0
 40
1
 40
1
 40
1
 40
1
 10
135.077889
 20
201.224451
 30
0.0
 10
134.866047
 20
201.224451
 30
0.0
 10
134.156854
 20
200.584419
 30
0.0
 10
133.501906
 20
199.802156
 30
0.0
  0
SPLINE
  5
346
100
AcDbEntity
  8
0
100
AcDbSpline
 70
8
 71
3
 72
8
 73
4
 74
0
 40
0
 40
0
 40
0
 40
0
 40
1
 40
1
 40
1
 40
1
 10
133.501906
 20
199.802156
 30
0.0
 10
132.846959
 20
199.019892
 30
0.0
 10
131.952438
 20
198.194392
 30
0.0
 10
131.514085
 20
197.967711
 30
0.0
  0
SPLINE
  5
347
100
AcDbEntity
  8
0
100
AcDbSpline
 70
8
 71
3
 72
8
 73
4
 74
0
 40
0
 40
0
 40
0
 40
0
 40
1
 40
1
 40
1
 40
1
 10
131.514085
 20
197.967711
 30
0.0
 10
130.462488
 20
197.423909
 30
0.0
 10
127.670182
 20
197.441381
 30
0.0
 10
126.596826
 20
197.998482
 30
0.0
  0
LINE
  5
348
100
AcDbEntity
  8
0
100
AcDbLine
 10
126.596826
 20
197.998482
 30
0.0
 11
126.596826
 21
197.998482
 31
0.0
  0
SPLINE
  5
349
100
AcDbEntity
  8
0
100
AcDbSpline
 70
8
 71
3
 72
8
 73
4
 74
0
 40
0
 40
0
 40
0
 40
0
 40
1
 40
1
 40
1
 40
1
 10
126.879048
 20
199.210909
 30
0.0
 10
125.812705
 20
199.871300
 30
0.0
 10
124.789071
 20
201.506674
 30
0.0
 10
125.442051
 20
201.506674
 30
0.0
  0
SPLINE
  5
34a
100
AcDbEntity
  8
0
100
AcDbSpline
 70
8
 71
3
 72
8
 73
4
 74
0
 40
0
 40
0
 40
0
 40
0
 40
1
 40
1
 40
1
 40
1
 10
125.442051
 20
201.506674
 30
0.0
 10
125.678198
 20
201.506674
 30
0.0
 10
126.009482
 20
201.248689
 30
0.0
 10
126.178231
 20
200.933373
 30
0.0
  0
SPLINE
  5
34b
100
AcDbEntity
  8
0
100
AcDbSpline
 70
8
 71
3
 72
8
 73
4
 74
0
 40
0
 40
0
 40
0
 40
0
 40
1
 40
1
 40
1
 40
1
 10
126.178231
 20
200.933373
 30
0.0
 10
126.346983
 20
200.618057
 30
0.0
 10
127.005506
 20
199.983057
 30
0.0
 10
127.641618
 20
199.522262
 30
0.0
  0
SPLINE
  5
34c
100
AcDbEntity
  8
0
100
AcDbSpline
 70
8
 71
3
 72
8
 73
4
 74
0
 40
0
 40
0
 40
0
 40
0
 40
1
 40
1
 40
1
 40
1
 10
127.641618
 20
199.522262
 30
0.0
 10
128.476022
 20
198.917821
 30
0.0
 10
128.648816
 20
198.684745
 30
0.0
 10
128.261948
 20
198.685507
 30
0.0
  0
SPLINE
  5
34d
100
AcDbEntity
  8
0
100
AcDbSpline
 70
8
 71
3
 72
8
 73
4
 74
0
 40
0
 40
0
 40
0
 40
0
 40
1
 40
1
 40
1
 40
1
 10
128.261948
 20
198.685507
 30
0.0
 10
127.967020
 20
198.686085
 30
0.0
 10
127.344715
 20
198.922517
 30
0.0
 10
126.879048
 20
199.210909
 30
0.0
  0
LINE
  5
34e
100
AcDbEntity
  8
0
100
AcDbLine
 10
126.879048
 20
199.210909
 30
0.0
 11
126.879048
 21
199.210909
 31
0.0
  0
SPLINE
  5
34f
100
AcDbEntity
  8
0
100
AcDbSpline
 70
8
 71
3
 72
8
 73
4
 74
0
 40
0
 40
0
 40
0
 40
0
 40
1
 40
1
 40
1
 40
1
 10
128.094576
 20
200.025007
 30
0.0
 10
127.861277
 20
200.296646
 30
0.0
 10
127.590849
 20
200.743051
 30
0.0
 10
127.493624
 20
201.017021
 30
0.0
  0
SPLINE
  5
350
100
AcDbEntity
  8
0
100
AcDbSpline
 70
8
 71
3
 72
8
 73
4
 74
0
 40
0
 40
0
 40
0
 40
0
 40
1
 40
1
 40
1
 40
1
 10
127.493624
 20
201.017021
 30
0.0
 10
127.300891
 20
201.560104
 30
0.0
 10
126.000823
 20
202.172137
 30
0.0
 10
125.585364
 20
201.915371
 30
0.0
  0
SPLINE
  5
351
100
AcDbEntity
  8
0
100
AcDbSpline
 70
8
 71
3
 72
8
 73
4
 74
0
 40
0
 40
0
 40
0
 40
0
 40
1
 40
1
 40
1
 40
1
 10
125.585364
 20
201.915371
 30
0.0
 10
125.443169
 20
201.827487
 30
0.0
 10
125.326826
 20
201.890078
 30
0.0
 10
125.326826
 20
202.054461
 30
0.0
  0
SPLINE
  5
352
100
AcDbEntity
  8
0
100
AcDbSpline
 70
8
 71
3
 72
8
 73
4
 74
0
 40
0
 40
0
 40
0
 40
0
 40
1
 40
1
 40
1
 40
1
 10
125.326826
 20
202.054461
 30
0.0
 10
125.326826
 20
202.437982
 30
0.0
 10
126.890478
 20
202.442602
 30
0.0
 10
127.603157
 20
202.061190
 30
0.0
  0
SPLINE
  5
353
100
AcDbEntity
  8
0
100
AcDbSpline
 70
8
 71
3
 72
8
 73
4
 74
0
 40
0
 40
0
 40
0
 40
0
 40
1
 40
1
 40
1
 40
1
 10
127.603157
 20
202.061190
 30
0.0
 10
127.903396
 20
201.900506
 30
0.0
 10
128.149048
 20
201.600132
 30
0.0
 10
128.149048
 20
201.393692
 30
0.0
  0
SPLINE
  5
354
100
AcDbEntity
  8
0
100
AcDbSpline
 70
8
 71
3
 72
8
 73
4
 74
0
 40
0
 40
0
 40
0
 40
0
 40
1
 40
1
 40
1
 40
1
 10
128.149048
 20
201.393692
 30
0.0
 10
128.149048
 20
201.187255
 30
0.0
 10
128.412265
 20
200.683722
 30
0.0
 10
128.733976
 20
200.274734
 30
0.0
  0
SPLINE
  5
355
100
AcDbEntity
  8
0
100
AcDbSpline
 70
8
 71
3
 72
8
 73
4
 74
0
 40
0
 40
0
 40
0
 40
0
 40
1
 40
1
 40
1
 40
1
 10
128.733976
 20
200.274734
 30
0.0
 10
129.170419
 20
199.719888
 30
0.0
 10
129.217344
 20
199.531118
 30
0.0
 10
128.918829
 20
199.531118
 30
0.0
  0
SPLINE
  5
356
100
AcDbEntity
  8
0
100
AcDbSpline
 70
8
 71
3
 72
8
 73
4
 74
0
 40
0
 40
0
 40
0
 40
0
 40
1
 40
1
 40
1
 40
1
 10
128.918829
 20
199.531118
 30
0.0
 10
128.698786
 20
199.531118
 30
0.0
 10
128.327872
 20
199.753368
 30
0.0
 10
128.094576
 20
200.025007
 30
0.0
  0
LINE
  5
357
100
AcDbEntity
  8
0
100
AcDbLine
 10
128.094576
 20
200.025007
 30
0.0
 11
128.094576
 21
200.025007
 31
0.0
  0
SPLINE
  5
358
100
AcDbEntity
  8
0
100
AcDbSpline
 70
8
 71
3
 72
8
 73
4
 74
0
 40
0
 40
0
 40
0
 40
0
 40
1
 40
1
 40
1
 40
1
 10
74.584298
 20
200.175920
 30
0.0
 10
74.684659
 20
200.527252
 30
0.0
 10
78.902244
 20
202.706361
 30
0.0
 10
80.171270
 20
203.062551
 30
0.0
  0
SPLINE
  5
359
100
AcDbEntity
  8
0
100
AcDbSpline
 70
8
 71
3
 72
8
 73
4
 74
0
 40
0
 40
0
 40
0
 40
0
 40
1
 40
1
 40
1
 40
1
 10
80.171270
 20
203.062551
 30
0.0
 10
80.800315
 20
203.239109
 30
0.0
 10
80.830920
 20
203.214175
 30
0.0
 10
80.453492
 20
202.832607
 30
0.0
  0
SPLINE
  5
35a
100
AcDbEntity
  8
0
100
AcDbSpline
 70
8
 71
3
 72
8
 73
4
 74
0
 40
0
 40
0
 40
0
 40
0
 40
1
 40
1
 40
1
 40
1
 10
80.453492
 20
202.832607
 30
0.0
 10
79.828319
 20
202.200573
 30
0.0
 10
74.469780
 20
199.775034
 30
0.0
 10
74.584298
 20
200.175920
 30
0.0
  0
LINE
  5
35b
100
AcDbEntity
  8
0
100
AcDbLine
 10
74.584298
 20
200.175920
 30
0.0
 11
74.584298
 21
200.175920
 31
0.0
  0
SPLINE
  5
35c
100
AcDbEntity
  8
0
100
AcDbSpline
 70
8
 71
3
 72
8
 73
4
 74
0
 40
0
 40
0
 40
0
 40
0
 40
1
 40
1
 40
1
 40
1
 10
74.275597
 20
201.295007
 30
0.0
 10
74.458790
 20
201.644257
 30
0.0
 10
76.082508
 20
203.391619
 30
0.0
 10
77.883862
 20
205.178032
 30
0.0
  0
SPLINE
  5
35d
100
AcDbEntity
  8
0
100
AcDbSpline
 70
8
 71
3
 72
8
 73
4
 74
0
 40
0
 40
0
 40
0
 40
0
 40
1
 40
1
 40
1
 40
1
 10
77.883862
 20
205.178032
 30
0.0
 10
82.605160
 20
209.860178
 30
0.0
 10
88.142448
 20
213.452618
 30
0.0
 10
91.249254
 20
213.849126
 30
0.0
  0
SPLINE
  5
35e
100
AcDbEntity
  8
0
100
AcDbSpline
 70
8
 71
3
 72
8
 73
4
 74
0
 40
0
 40
0
 40
0
 40
0
 40
1
 40
1
 40
1
 40
1
 10
91.249254
 20
213.849126
 30
0.0
 10
92.840347
 20
214.052194
 30
0.0
 10
92.601006
 20
213.864084
 30
0.0
 10
89.908053
 20
212.795026
 30
0.0
  0
SPLINE
  5
35f
100
AcDbEntity
  8
0
100
AcDbSpline
 70
8
 71
3
 72
8
 73
4
 74
0
 40
0
 40
0
 40
0
 40
0
 40
1
 40
1
 40
1
 40
1
 10
89.908053
 20
212.795026
 30
0.0
 10
85.730489
 20
211.136598
 30
0.0
 10
81.403509
 20
207.930209
 30
0.0
 10
76.673400
 20
202.987846
 30
0.0
  0
SPLINE
  5
360
100
AcDbEntity
  8
0
100
AcDbSpline
 70
8
 71
3
 72
8
 73
4
 74
0
 40
0
 40
0
 40
0
 40
0
 40
1
 40
1
 40
1
 40
1
 10
76.673400
 20
202.987846
 30
0.0
 10
74.447789
 20
200.662369
 30
0.0
 10
73.647342
 20
200.097256
 30
0.0
 10
74.275597
 20
201.295007
 30
0.0
  0
LINE
  5
361
100
AcDbEntity
  8
0
100
AcDbLine
 10
74.275597
 20
201.295007
 30
0.0
 11
74.275597
 21
201.295007
 31
0.0
  0
SPLINE
  5
362
100
AcDbEntity
  8
0
100
AcDbSpline
 70
8
 71
3
 72
8
 73
4
 74
0
 40
0
 40
0
 40
0
 40
0
 40
1
 40
1
 40
1
 40
1
 10
145.546380
 20
201.365215
 30
0.0
 10
144.661946
 20
202.249649
 30
0.0
 10
145.651426
 20
204.893340
 30
0.0
 10
146.866887
 20
204.893340
 30
0.0
  0
SPLINE
  5
363
100
AcDbEntity
  8
0
100
AcDbSpline
 70
8
 71
3
 72
8
 73
4
 74
0
 40
0
 40
0
 40
0
 40
0
 40
1
 40
1
 40
1
 40
1
 10
146.866887
 20
204.893340
 30
0.0
 10
147.778569
 20
204.893340
 30
0.0
 10
148.186826
 20
204.371557
 30
0.0
 10
148.186826
 20
203.206360
 30
0.0
  0
SPLINE
  5
364
100
AcDbEntity
  8
0
100
AcDbSpline
 70
8
 71
3
 72
8
 73
4
 74
0
 40
0
 40
0
 40
0
 40
0
 40
1
 40
1
 40
1
 40
1
 10
148.186826
 20
203.206360
 30
0.0
 10
148.186826
 20
201.330375
 30
0.0
 10
146.651664
 20
200.259929
 30
0.0
 10
145.546380
 20
201.365215
 30
0.0
  0
LINE
  5
365
100
AcDbEntity
  8
0
100
AcDbLine
 10
145.546380
 20
201.365215
 30
0.0
 11
145.546380
 21
201.365215
 31
0.0
  0
SPLINE
  5
366
100
AcDbEntity
  8
0
100
AcDbSpline
 70
8
 71
3
 72
8
 73
4
 74
0
 40
0
 40
0
 40
0
 40
0
 40
1
 40
1
 40
1
 40
1
 10
147.112409
 20
202.000563
 30
0.0
 10
147.802625
 20
202.804213
 30
0.0
 10
147.910906
 20
203.435609
 30
0.0
 10
147.439377
 20
203.907137
 30
0.0
  0
SPLINE
  5
367
100
AcDbEntity
  8
0
100
AcDbSpline
 70
8
 71
3
 72
8
 73
4
 74
0
 40
0
 40
0
 40
0
 40
0
 40
1
 40
1
 40
1
 40
1
 10
147.439377
 20
203.907137
 30
0.0
 10
147.083128
 20
204.263386
 30
0.0
 10
146.916690
 20
204.280783
 30
0.0
 10
146.575303
 20
203.997457
 30
0.0
  0
SPLINE
  5
368
100
AcDbEntity
  8
0
100
AcDbSpline
 70
8
 71
3
 72
8
 73
4
 74
0
 40
0
 40
0
 40
0
 40
0
 40
1
 40
1
 40
1
 40
1
 10
146.575303
 20
203.997457
 30
0.0
 10
145.907419
 20
203.443164
 30
0.0
 10
145.584638
 20
202.344995
 30
0.0
 10
145.957538
 20
201.895677
 30
0.0
  0
SPLINE
  5
369
100
AcDbEntity
  8
0
100
AcDbSpline
 70
8
 71
3
 72
8
 73
4
 74
0
 40
0
 40
0
 40
0
 40
0
 40
1
 40
1
 40
1
 40
1
 10
145.957538
 20
201.895677
 30
0.0
 10
146.381391
 20
201.384965
 30
0.0
 10
146.600819
 20
201.404893
 30
0.0
 10
147.112409
 20
202.000563
 30
0.0
  0
LINE
  5
36a
100
AcDbEntity
  8
0
100
AcDbLine
 10
147.112409
 20
202.000563
 30
0.0
 11
147.112409
 21
202.000563
 31
0.0
  0
SPLINE
  5
36b
100
AcDbEntity
  8
0
100
AcDbSpline
 70
8
 71
3
 72
8
 73
4
 74
0
 40
0
 40
0
 40
0
 40
0
 40
1
 40
1
 40
1
 40
1
 10
82.447486
 20
205.594104
 30
0.0
 10
83.076663
 20
206.218506
 30
0.0
 10
86.022665
 20
206.871978
 30
0.0
 10
88.062232
 20
206.839548
 30
0.0
  0
LINE
  5
36c
100
AcDbEntity
  8
0
100
AcDbLine
 10
88.062232
 20
206.839548
 30
0.0
 11
89.907937
 21
206.810196
 31
0.0
  0
LINE
  5
36d
100
AcDbEntity
  8
0
100
AcDbLine
 10
89.907937
 20
206.810196
 30
0.0
 11
87.085715
 21
206.313181
 31
0.0
  0
SPLINE
  5
36e
100
AcDbEntity
  8
0
100
AcDbSpline
 70
8
 71
3
 72
8
 73
4
 74
0
 40
0
 40
0
 40
0
 40
0
 40
1
 40
1
 40
1
 40
1
 10
87.085715
 20
206.313181
 30
0.0
 10
85.533492
 20
206.039823
 30
0.0
 10
83.763790
 20
205.675790
 30
0.0
 10
83.153041
 20
205.504222
 30
0.0
  0
SPLINE
  5
36f
100
AcDbEntity
  8
0
100
AcDbSpline
 70
8
 71
3
 72
8
 73
4
 74
0
 40
0
 40
0
 40
0
 40
0
 40
1
 40
1
 40
1
 40
1
 10
83.153041
 20
205.504222
 30
0.0
 10
82.191945
 20
205.234237
 30
0.0
 10
82.097050
 20
205.246324
 30
0.0
 10
82.447486
 20
205.594104
 30
0.0
  0
LINE
  5
370
100
AcDbEntity
  8
0
100
AcDbLine
 10
82.447486
 20
205.594104
 30
0.0
 11
82.447486
 21
205.594104
 31
0.0
  0
SPLINE
  5
371
100
AcDbEntity
  8
0
100
AcDbSpline
 70
8
 71
3
 72
8
 73
4
 74
0
 40
0
 40
0
 40
0
 40
0
 40
1
 40
1
 40
1
 40
1
 10
81.300159
 20
206.120849
 30
0.0
 10
81.300159
 20
206.401494
 30
0.0
 10
86.289467
 20
209.515254
 30
0.0
 10
88.496826
 20
210.612195
 30
0.0
  0
SPLINE
  5
372
100
AcDbEntity
  8
0
100
AcDbSpline
 70
8
 71
3
 72
8
 73
4
 74
0
 40
0
 40
0
 40
0
 40
0
 40
1
 40
1
 40
1
 40
1
 10
88.496826
 20
210.612195
 30
0.0
 10
93.139692
 20
212.919452
 30
0.0
 10
98.027143
 20
214.494814
 30
0.0
 10
100.491270
 20
214.478338
 30
0.0
  0
SPLINE
  5
373
100
AcDbEntity
  8
0
100
AcDbSpline
 70
8
 71
3
 72
8
 73
4
 74
0
 40
0
 40
0
 40
0
 40
0
 40
1
 40
1
 40
1
 40
1
 10
100.491270
 20
214.478338
 30
0.0
 10
101.772026
 20
214.469772
 30
0.0
 10
101.113265
 20
214.064995
 30
0.0
 10
99.362381
 20
213.784689
 30
0.0
  0
SPLINE
  5
374
100
AcDbEntity
  8
0
100
AcDbSpline
 70
8
 71
3
 72
8
 73
4
 74
0
 40
0
 40
0
 40
0
 40
0
 40
1
 40
1
 40
1
 40
1
 10
99.362381
 20
213.784689
 30
0.0
 10
97.532232
 20
213.491689
 30
0.0
 10
93.114170
 20
212.045340
 30
0.0
 10
90.728820
 20
210.958299
 30
0.0
  0
SPLINE
  5
375
100
AcDbEntity
  8
0
100
AcDbSpline
 70
8
 71
3
 72
8
 73
4
 74
0
 40
0
 40
0
 40
0
 40
0
 40
1
 40
1
 40
1
 40
1
 10
90.728820
 20
210.958299
 30
0.0
 10
88.773133
 20
210.067063
 30
0.0
 10
87.494641
 20
209.353885
 30
0.0
 10
83.715651
 20
207.046162
 30
0.0
  0
SPLINE
  5
376
100
AcDbEntity
  8
0
100
AcDbSpline
 70
8
 71
3
 72
8
 73
4
 74
0
 40
0
 40
0
 40
0
 40
0
 40
1
 40
1
 40
1
 40
1
 10
83.715651
 20
207.046162
 30
0.0
 10
82.259102
 20
206.156688
 30
0.0
 10
81.300159
 20
205.789342
 30
0.0
 10
81.300159
 20
206.120849
 30
0.0
  0
LINE
  5
377
100
AcDbEntity
  8
0
100
AcDbLine
 10
81.300159
 20
206.120849
 30
0.0
 11
81.300159
 21
206.120849
 31
0.0
  0
SPLINE
  5
378
100
AcDbEntity
  8
0
100
AcDbSpline
 70
8
 71
3
 72
8
 73
4
 74
0
 40
0
 40
0
 40
0
 40
0
 40
1
 40
1
 40
1
 40
1
 10
89.202381
 20
214.480567
 30
0.0
 10
89.435215
 20
214.635618
 30
0.0
 10
90.059631
 20
214.764421
 30
0.0
 10
90.589975
 20
214.766797
 30
0.0
  0
SPLINE
  5
379
100
AcDbEntity
  8
0
100
AcDbSpline
 70
8
 71
3
 72
8
 73
4
 74
0
 40
0
 40
0
 40
0
 40
0
 40
1
 40
1
 40
1
 40
1
 10
90.589975
 20
214.766797
 30
0.0
 10
91.855262
 20
214.772467
 30
0.0
 10
91.629873
 20
214.612571
 30
0.0
 10
90.049048
 20
214.383054
 30
0.0
  0
SPLINE
  5
37a
100
AcDbEntity
  8
0
100
AcDbSpline
 70
8
 71
3
 72
8
 73
4
 74
0
 40
0
 40
0
 40
0
 40
0
 40
1
 40
1
 40
1
 40
1
 10
90.049048
 20
214.383054
 30
0.0
 10
89.161575
 20
214.254200
 30
0.0
 10
88.906556
 20
214.283574
 30
0.0
 10
89.202381
 20
214.480567
 30
0.0
  0
LINE
  5
37b
100
AcDbEntity
  8
0
100
AcDbLine
 10
89.202381
 20
214.480567
 30
0.0
 11
89.202381
 21
214.480567
 31
0.0
  0
SPLINE
  5
37c
100
AcDbEntity
  8
0
100
AcDbSpline
 70
8
 71
3
 72
8
 73
4
 74
0
 40
0
 40
0
 40
0
 40
0
 40
1
 40
1
 40
1
 40
1
 10
88.415636
 20
215.108080
 30
0.0
 10
88.593673
 20
215.666553
 30
0.0
 10
92.400969
 20
217.453533
 30
0.0
 10
94.819521
 20
218.113789
 30
0.0
  0
SPLINE
  5
37d
100
AcDbEntity
  8
0
100
AcDbSpline
 70
8
 71
3
 72
8
 73
4
 74
0
 40
0
 40
0
 40
0
 40
0
 40
1
 40
1
 40
1
 40
1
 10
94.819521
 20
218.113789
 30
0.0
 10
97.647506
 20
218.885816
 30
0.0
 10
101.655053
 20
219.571010
 30
0.0
 10
103.279905
 20
219.560313
 30
0.0
  0
SPLINE
  5
37e
100
AcDbEntity
  8
0
100
AcDbSpline
 70
8
 71
3
 72
8
 73
4
 74
0
 40
0
 40
0
 40
0
 40
0
 40
1
 40
1
 40
1
 40
1
 10
103.279905
 20
219.560313
 30
0.0
 10
105.139434
 20
219.548071
 30
0.0
 10
104.197497
 20
219.119581
 30
0.0
 10
101.761270
 20
218.869481
 30
0.0
  0
SPLINE
  5
37f
100
AcDbEntity
  8
0
100
AcDbSpline
 70
8
 71
3
 72
8
 73
4
 74
0
 40
0
 40
0
 40
0
 40
0
 40
1
 40
1
 40
1
 40
1
 10
101.761270
 20
218.869481
 30
0.0
 10
99.113450
 20
218.597656
 30
0.0
 10
93.973337
 20
217.274178
 30
0.0
 10
91.883492
 20
216.326143
 30
0.0
  0
SPLINE
  5
380
100
AcDbEntity
  8
0
100
AcDbSpline
 70
8
 71
3
 72
8
 73
4
 74
0
 40
0
 40
0
 40
0
 40
0
 40
1
 40
1
 40
1
 40
1
 10
91.883492
 20
216.326143
 30
0.0
 10
88.442317
 20
214.765093
 30
0.0
 10
88.289147
 20
214.711293
 30
0.0
 10
88.415636
 20
215.108080
 30
0.0
  0
LINE
  5
381
100
AcDbEntity
  8
0
100
AcDbLine
 10
88.415636
 20
215.108080
 30
0.0
 11
88.415636
 21
215.108080
 31
0.0
  0
SPLINE
  5
382
100
AcDbEntity
  8
0
100
AcDbSpline
 70
8
 71
3
 72
8
 73
4
 74
0
 40
0
 40
0
 40
0
 40
0
 40
1
 40
1
 40
1
 40
1
 10
97.810159
 20
215.404744
 30
0.0
 10
95.803728
 20
215.793880
 30
0.0
 10
95.418013
 20
215.955960
 30
0.0
 10
96.112271
 20
216.118199
 30
0.0
  0
SPLINE
  5
383
100
AcDbEntity
  8
0
100
AcDbSpline
 70
8
 71
3
 72
8
 73
4
 74
0
 40
0
 40
0
 40
0
 40
0
 40
1
 40
1
 40
1
 40
1
 10
96.112271
 20
216.118199
 30
0.0
 10
96.757205
 20
216.268911
 30
0.0
 10
100.425546
 20
215.670312
 30
0.0
 10
101.055715
 20
215.311528
 30
0.0
  0
SPLINE
  5
384
100
AcDbEntity
  8
0
100
AcDbSpline
 70
8
 71
3
 72
8
 73
4
 74
0
 40
0
 40
0
 40
0
 40
0
 40
1
 40
1
 40
1
 40
1
 10
101.055715
 20
215.311528
 30
0.0
 10
101.622191
 20
214.989005
 30
0.0
 10
99.663710
 20
215.045255
 30
0.0
 10
97.810159
 20
215.404744
 30
0.0
  0
LINE
  5
385
100
AcDbEntity
  8
0
100
AcDbLine
 10
97.810159
 20
215.404744
 30
0.0
 11
97.810159
 21
215.404744
 31
0.0
  0
SPLINE
  5
386
100
AcDbEntity
  8
0
100
AcDbSpline
 70
8
 71
3
 72
8
 73
4
 74
0
 40
0
 40
0
 40
0
 40
0
 40
1
 40
1
 40
1
 40
1
 10
95.907259
 20
217.016896
 30
0.0
 10
96.257663
 20
217.169570
 30
0.0
 10
97.718163
 20
217.513596
 30
0.0
 10
99.152814
 20
217.781399
 30
0.0
  0
SPLINE
  5
387
100
AcDbEntity
  8
0
100
AcDbSpline
 70
8
 71
3
 72
8
 73
4
 74
0
 40
0
 40
0
 40
0
 40
0
 40
1
 40
1
 40
1
 40
1
 10
99.152814
 20
217.781399
 30
0.0
 10
102.448580
 20
218.396615
 30
0.0
 10
112.437957
 20
218.508545
 30
0.0
 10
113.332381
 20
217.940279
 30
0.0
  0
SPLINE
  5
388
100
AcDbEntity
  8
0
100
AcDbSpline
 70
8
 71
3
 72
8
 73
4
 74
0
 40
0
 40
0
 40
0
 40
0
 40
1
 40
1
 40
1
 40
1
 10
113.332381
 20
217.940279
 30
0.0
 10
113.800501
 20
217.642865
 30
0.0
 10
113.487443
 20
217.618783
 30
0.0
 10
111.497937
 20
217.799168
 30
0.0
  0
SPLINE
  5
389
100
AcDbEntity
  8
0
100
AcDbSpline
 70
8
 71
3
 72
8
 73
4
 74
0
 40
0
 40
0
 40
0
 40
0
 40
1
 40
1
 40
1
 40
1
 10
111.497937
 20
217.799168
 30
0.0
 10
108.106805
 20
218.106640
 30
0.0
 10
104.035448
 20
217.967031
 30
0.0
 10
100.987566
 20
217.438767
 30
0.0
  0
SPLINE
  5
38a
100
AcDbEntity
  8
0
100
AcDbSpline
 70
8
 71
3
 72
8
 73
4
 74
0
 40
0
 40
0
 40
0
 40
0
 40
1
 40
1
 40
1
 40
1
 10
100.987566
 20
217.438767
 30
0.0
 10
97.565233
 20
216.845601
 30
0.0
 10
95.031139
 20
216.635168
 30
0.0
 10
95.907259
 20
217.016896
 30
0.0
  0
LINE
  5
38b
100
AcDbEntity
  8
0
100
AcDbLine
 10
95.907259
 20
217.016896
 30
0.0
 11
95.907259
 21
217.016896
 31
0.0
  0
SPLINE
  5
38c
100
AcDbEntity
  8
0
100
AcDbSpline
 70
8
 71
3
 72
8
 73
4
 74
0
 40
0
 40
0
 40
0
 40
0
 40
1
 40
1
 40
1
 40
1
 10
111.915665
 20
219.124483
 30
0.0
 10
110.256904
 20
219.938474
 30
0.0
 10
110.073429
 20
220.094512
 30
0.0
 10
110.754188
 20
220.112261
 30
0.0
  0
SPLINE
  5
38d
100
AcDbEntity
  8
0
100
AcDbSpline
 70
8
 71
3
 72
8
 73
4
 74
0
 40
0
 40
0
 40
0
 40
0
 40
1
 40
1
 40
1
 40
1
 10
110.754188
 20
220.112261
 30
0.0
 10
111.586893
 20
220.133972
 30
0.0
 10
114.320159
 20
218.817835
 30
0.0
 10
114.320159
 20
218.395153
 30
0.0
  0
SPLINE
  5
38e
100
AcDbEntity
  8
0
100
AcDbSpline
 70
8
 71
3
 72
8
 73
4
 74
0
 40
0
 40
0
 40
0
 40
0
 40
1
 40
1
 40
1
 40
1
 10
114.320159
 20
218.395153
 30
0.0
 10
114.320159
 20
218.007397
 30
0.0
 10
113.984772
 20
218.109127
 30
0.0
 10
111.915665
 20
219.124483
 30
0.0
  0
LINE
  5
38f
100
AcDbEntity
  8
0
100
AcDbLine
 10
111.915665
 20
219.124483
 30
0.0
 11
111.915665
 21
219.124483
 31
0.0
  0
SPLINE
  5
390
100
AcDbEntity
  8
0
100
AcDbSpline
 70
8
 71
3
 72
8
 73
4
 74
0
 40
0
 40
0
 40
0
 40
0
 40
1
 40
1
 40
1
 40
1
 10
118.976826
 20
219.878485
 30
0.0
 10
117.579826
 20
220.167616
 30
0.0
 10
115.166826
 20
220.525073
 30
0.0
 10
113.614604
 20
220.672833
 30
0.0
  0
LINE
  5
391
100
AcDbEntity
  8
0
100
AcDbLine
 10
113.614604
 20
220.672833
 30
0.0
 11
110.792381
 21
220.941489
 31
0.0
  0
LINE
  5
392
100
AcDbEntity
  8
0
100
AcDbLine
 10
110.792381
 20
220.941489
 30
0.0
 11
114.461270
 21
220.854026
 31
0.0
  0
SPLINE
  5
393
100
AcDbEntity
  8
0
100
AcDbSpline
 70
8
 71
3
 72
8
 73
4
 74
0
 40
0
 40
0
 40
0
 40
0
 40
1
 40
1
 40
1
 40
1
 10
114.461270
 20
220.854026
 30
0.0
 10
118.017699
 20
220.769243
 30
0.0
 10
122.031212
 20
220.106535
 30
0.0
 10
122.377036
 20
219.546981
 30
0.0
  0
SPLINE
  5
394
100
AcDbEntity
  8
0
100
AcDbSpline
 70
8
 71
3
 72
8
 73
4
 74
0
 40
0
 40
0
 40
0
 40
0
 40
1
 40
1
 40
1
 40
1
 10
122.377036
 20
219.546981
 30
0.0
 10
122.593156
 20
219.197291
 30
0.0
 10
121.978722
 20
219.257193
 30
0.0
 10
118.976826
 20
219.878485
 30
0.0
  0
LINE
  5
395
100
AcDbEntity
  8
0
100
AcDbLine
 10
118.976826
 20
219.878485
 30
0.0
 11
118.976826
 21
219.878485
 31
0.0
  0
SPLINE
  5
396
100
AcDbEntity
  8
0
100
AcDbSpline
 70
8
 71
3
 72
8
 73
4
 74
0
 40
0
 40
0
 40
0
 40
0
 40
1
 40
1
 40
1
 40
1
 10
121.647277
 20
220.686315
 30
0.0
 10
120.928548
 20
221.300651
 30
0.0
 10
120.799586
 20
221.524546
 30
0.0
 10
121.159595
 20
221.532982
 30
0.0
  0
SPLINE
  5
397
100
AcDbEntity
  8
0
100
AcDbSpline
 70
8
 71
3
 72
8
 73
4
 74
0
 40
0
 40
0
 40
0
 40
0
 40
1
 40
1
 40
1
 40
1
 10
121.159595
 20
221.532982
 30
0.0
 10
121.428787
 20
221.539290
 30
0.0
 10
122.063787
 20
221.167174
 30
0.0
 10
122.570706
 20
220.706057
 30
0.0
  0
SPLINE
  5
398
100
AcDbEntity
  8
0
100
AcDbSpline
 70
8
 71
3
 72
8
 73
4
 74
0
 40
0
 40
0
 40
0
 40
0
 40
1
 40
1
 40
1
 40
1
 10
122.570706
 20
220.706057
 30
0.0
 10
123.805597
 20
219.582750
 30
0.0
 10
122.959526
 20
219.564660
 30
0.0
 10
121.647277
 20
220.686315
 30
0.0
  0
LINE
  5
399
100
AcDbEntity
  8
0
100
AcDbLine
 10
121.647277
 20
220.686315
 30
0.0
 11
121.647277
 21
220.686315
 31
0.0
  0
SPLINE
  5
39a
100
AcDbEntity
  8
0
100
AcDbSpline
 70
8
 71
3
 72
8
 73
4
 74
0
 40
0
 40
0
 40
0
 40
0
 40
1
 40
1
 40
1
 40
1
 10
101.761270
 20
220.415563
 30
0.0
 10
101.016012
 20
220.735811
 30
0.0
 10
103.724628
 20
220.735811
 30
0.0
 10
104.724604
 20
220.415563
 30
0.0
  0
SPLINE
  5
39b
100
AcDbEntity
  8
0
100
AcDbSpline
 70
8
 71
3
 72
8
 73
4
 74
0
 40
0
 40
0
 40
0
 40
0
 40
1
 40
1
 40
1
 40
1
 10
104.724604
 20
220.415563
 30
0.0
 10
105.262948
 20
220.243156
 30
0.0
 10
105.062294
 20
220.187637
 30
0.0
 10
103.877937
 20
220.181310
 30
0.0
  0
SPLINE
  5
39c
100
AcDbEntity
  8
0
100
AcDbSpline
 70
8
 71
3
 72
8
 73
4
 74
0
 40
0
 40
0
 40
0
 40
0
 40
1
 40
1
 40
1
 40
1
 10
103.877937
 20
220.181310
 30
0.0
 10
103.024215
 20
220.176746
 30
0.0
 10
102.071715
 20
220.282159
 30
0.0
 10
101.761270
 20
220.415563
 30
0.0
  0
LINE
  5
39d
100
AcDbEntity
  8
0
100
AcDbLine
 10
101.761270
 20
220.415563
 30
0.0
 11
101.761270
 21
220.415563
 31
0.0
  0
SPLINE
  5
39e
100
AcDbEntity
  8
0
100
AcDbSpline
 70
8
 71
3
 72
8
 73
4
 74
0
 40
0
 40
0
 40
0
 40
0
 40
1
 40
1
 40
1
 40
1
 10
100.907387
 20
221.273905
 30
0.0
 10
100.833216
 20
221.393917
 30
0.0
 10
102.010997
 20
221.722757
 30
0.0
 10
103.524679
 20
222.004660
 30
0.0
  0
SPLINE
  5
39f
100
AcDbEntity
  8
0
100
AcDbSpline
 70
8
 71
3
 72
8
 73
4
 74
0
 40
0
 40
0
 40
0
 40
0
 40
1
 40
1
 40
1
 40
1
 10
103.524679
 20
222.004660
 30
0.0
 10
107.013666
 20
222.654440
 30
0.0
 10
115.208538
 20
222.751838
 30
0.0
 10
115.787224
 20
222.150405
 30
0.0
  0
SPLINE
  5
3a0
100
AcDbEntity
  8
0
100
AcDbSpline
 70
8
 71
3
 72
8
 73
4
 74
0
 40
0
 40
0
 40
0
 40
0
 40
1
 40
1
 40
1
 40
1
 10
115.787224
 20
222.150405
 30
0.0
 10
116.094953
 20
221.830577
 30
0.0
 10
115.948395
 20
221.803323
 30
0.0
 10
114.884604
 20
221.982551
 30
0.0
  0
SPLINE
  5
3a1
100
AcDbEntity
  8
0
100
AcDbSpline
 70
8
 71
3
 72
8
 73
4
 74
0
 40
0
 40
0
 40
0
 40
0
 40
1
 40
1
 40
1
 40
1
 10
114.884604
 20
221.982551
 30
0.0
 10
112.888415
 20
222.318866
 30
0.0
 10
108.527669
 20
222.190289
 30
0.0
 10
105.289048
 20
221.699620
 30
0.0
  0
SPLINE
  5
3a2
100
AcDbEntity
  8
0
100
AcDbSpline
 70
8
 71
3
 72
8
 73
4
 74
0
 40
0
 40
0
 40
0
 40
0
 40
1
 40
1
 40
1
 40
1
 10
105.289048
 20
221.699620
 30
0.0
 10
103.659215
 20
221.452693
 30
0.0
 10
102.036934
 20
221.206795
 30
0.0
 10
101.683978
 20
221.153181
 30
0.0
  0
SPLINE
  5
3a3
100
AcDbEntity
  8
0
100
AcDbSpline
 70
8
 71
3
 72
8
 73
4
 74
0
 40
0
 40
0
 40
0
 40
0
 40
1
 40
1
 40
1
 40
1
 10
101.683978
 20
221.153181
 30
0.0
 10
101.331025
 20
221.099570
 30
0.0
 10
100.981558
 20
221.153895
 30
0.0
 10
100.907387
 20
221.273905
 30
0.0
  0
LINE
  5
3a4
100
AcDbEntity
  8
0
100
AcDbLine
 10
100.907387
 20
221.273905
 30
0.0
 11
100.907387
 21
221.273905
 31
0.0
  0
LINE
  5
3a5
100
AcDbEntity
  8
0
100
AcDbLine
 10
115.025715
 20
223.111900
 30
0.0
 11
114.179048
 21
223.525002
 31
0.0
  0
LINE
  5
3a6
100
AcDbEntity
  8
0
100
AcDbLine
 10
114.179048
 20
223.525002
 30
0.0
 11
115.283578
 21
223.391641
 31
0.0
  0
SPLINE
  5
3a7
100
AcDbEntity
  8
0
100
AcDbSpline
 70
8
 71
3
 72
8
 73
4
 74
0
 40
0
 40
0
 40
0
 40
0
 40
1
 40
1
 40
1
 40
1
 10
115.283578
 20
223.391641
 30
0.0
 10
115.891070
 20
223.318291
 30
0.0
 10
116.519720
 20
223.126668
 30
0.0
 10
116.680578
 20
222.965810
 30
0.0
  0
SPLINE
  5
3a8
100
AcDbEntity
  8
0
100
AcDbSpline
 70
8
 71
3
 72
8
 73
4
 74
0
 40
0
 40
0
 40
0
 40
0
 40
1
 40
1
 40
1
 40
1
 10
116.680578
 20
222.965810
 30
0.0
 10
117.122468
 20
222.523921
 30
0.0
 10
116.033832
 20
222.620023
 30
0.0
 10
115.025715
 20
223.111900
 30
0.0
  0
LINE
  5
3a9
100
AcDbEntity
  8
0
100
AcDbLine
 10
115.025715
 20
223.111900
 30
0.0
 11
115.025715
 21
223.111900
 31
0.0
  0
ENDSEC
  0
SECTION
  2
OBJECTS
  0
DICTIONARY
  5
C
330
0
100
AcDbDictionary
  3
ACAD_GROUP
350
D
  3
ACAD_MLINESTYLE
350
17
  0
DICTIONARY
  5
D
330
C
100
AcDbDictionary
  0
DICTIONARY
  5
1A
330
C
100
AcDbDictionary
  0
DICTIONARY
  5
17
330
C
100
AcDbDictionary
  3
STANDARD
350
18
  0
DICTIONARY
  5
19
330
C
100
AcDbDictionary
  0
ENDSEC
  0
EOF
